  0
SECTION
  2
HEADER
  9
$ANGBASE
  50
0.0
  9
$ANGDIR
  70
1
  9
$MEASUREMENT
  70
1
  0
ENDSEC
  0
SECTION
  2
TABLES
  0
TABLE
  2
LTYPE
  70
4
  0
LTYPE
  5
40F
  2
CONTINUOUS
  70
0
  3
Solid line
  72
65
  73
0
  40
0.0
  0
LTYPE
  5
410
  2
DASHDOT
 70
0
  3
Dash Dot ____ _ ____ _
 72
65
 73
4
 40
2.0
 49
1.25
 49
-0.25
 49
0.25
 49
-0.25
  0
LTYPE
  5
411
  2
DASHED
 70
0
  3
Dashed __ __ __ __ __
 72
65
 73
2
 40
0.75
 49
0.5
 49
-0.25
  0
LTYPE
  5
43B
  2
DOTTED
 70
0
  3
Dotted .  .  .  .
 72
65
 73
2
 40
0.2
 49
0.0
 49
-0.2
  0
ENDTAB
  0
TABLE
  2
STYLE
  70
4
  0
STYLE
  2
KICAD
  70
0
  40
0
  41
1
  42
1
  50
0
  71
0
  3
isocp.shx
  0
STYLE
  2
KICADB
  70
0
  40
0
  41
1
  42
1
  50
0
  71
0
  3
isocp.shx
  0
STYLE
  2
KICADI
  70
0
  40
0
  41
1
  42
1
  50
15
  71
0
  3
isocp.shx
  0
STYLE
  2
KICADBI
  70
0
  40
0
  41
1
  42
1
  50
15
  71
0
  3
isocp.shx
  0
ENDTAB
  0
TABLE
  2
LAYER
  70
1
  0
LAYER
  2
BLACK
  70
0
  62
7
  6
CONTINUOUS
  0
ENDTAB
  0
ENDSEC
  0
SECTION
  2
ENTITIES
0
LINE
8
BLACK
6
CONTINUOUS
10
65.7013
20
-85.1928
11
65.729
21
-85.2012
0
LINE
8
BLACK
6
CONTINUOUS
10
65.729
20
-85.2012
11
65.7545
21
-85.2149
0
LINE
8
BLACK
6
CONTINUOUS
10
65.7545
20
-85.2149
11
65.7768
21
-85.2332
0
LINE
8
BLACK
6
CONTINUOUS
10
65.7768
20
-85.2332
11
65.7952
21
-85.2556
0
LINE
8
BLACK
6
CONTINUOUS
10
65.7952
20
-85.2556
11
65.8088
21
-85.2811
0
LINE
8
BLACK
6
CONTINUOUS
10
65.8088
20
-85.2811
11
65.8172
21
-85.3087
0
LINE
8
BLACK
6
CONTINUOUS
10
65.8172
20
-85.3087
11
65.82
21
-85.3375
0
LINE
8
BLACK
6
CONTINUOUS
10
65.82
20
-85.3375
11
65.82
21
-85.6325
0
LINE
8
BLACK
6
CONTINUOUS
10
65.82
20
-85.6325
11
65.8172
21
-85.6613
0
LINE
8
BLACK
6
CONTINUOUS
10
65.8172
20
-85.6613
11
65.8088
21
-85.6889
0
LINE
8
BLACK
6
CONTINUOUS
10
65.8088
20
-85.6889
11
65.7952
21
-85.7144
0
LINE
8
BLACK
6
CONTINUOUS
10
65.7952
20
-85.7144
11
65.7768
21
-85.7368
0
LINE
8
BLACK
6
CONTINUOUS
10
65.7768
20
-85.7368
11
65.7545
21
-85.7551
0
LINE
8
BLACK
6
CONTINUOUS
10
65.7545
20
-85.7551
11
65.729
21
-85.7688
0
LINE
8
BLACK
6
CONTINUOUS
10
65.729
20
-85.7688
11
65.7013
21
-85.7772
0
LINE
8
BLACK
6
CONTINUOUS
10
65.7013
20
-85.7772
11
65.6725
21
-85.78
0
LINE
8
BLACK
6
CONTINUOUS
10
65.6725
20
-85.78
11
65.3275
21
-85.78
0
LINE
8
BLACK
6
CONTINUOUS
10
65.3275
20
-85.78
11
65.2987
21
-85.7772
0
LINE
8
BLACK
6
CONTINUOUS
10
65.2987
20
-85.7772
11
65.2711
21
-85.7688
0
LINE
8
BLACK
6
CONTINUOUS
10
65.2711
20
-85.7688
11
65.2456
21
-85.7551
0
LINE
8
BLACK
6
CONTINUOUS
10
65.2456
20
-85.7551
11
65.2232
21
-85.7368
0
LINE
8
BLACK
6
CONTINUOUS
10
65.2232
20
-85.7368
11
65.2049
21
-85.7144
0
LINE
8
BLACK
6
CONTINUOUS
10
65.2049
20
-85.7144
11
65.1912
21
-85.6889
0
LINE
8
BLACK
6
CONTINUOUS
10
65.1912
20
-85.6889
11
65.1829
21
-85.6613
0
LINE
8
BLACK
6
CONTINUOUS
10
65.1829
20
-85.6613
11
65.18
21
-85.6325
0
LINE
8
BLACK
6
CONTINUOUS
10
65.18
20
-85.6325
11
65.18
21
-85.3375
0
LINE
8
BLACK
6
CONTINUOUS
10
65.18
20
-85.3375
11
65.1829
21
-85.3087
0
LINE
8
BLACK
6
CONTINUOUS
10
65.1829
20
-85.3087
11
65.1912
21
-85.2811
0
LINE
8
BLACK
6
CONTINUOUS
10
65.1912
20
-85.2811
11
65.2049
21
-85.2556
0
LINE
8
BLACK
6
CONTINUOUS
10
65.2049
20
-85.2556
11
65.2232
21
-85.2332
0
LINE
8
BLACK
6
CONTINUOUS
10
65.2232
20
-85.2332
11
65.2456
21
-85.2149
0
LINE
8
BLACK
6
CONTINUOUS
10
65.2456
20
-85.2149
11
65.2711
21
-85.2012
0
LINE
8
BLACK
6
CONTINUOUS
10
65.2711
20
-85.2012
11
65.2987
21
-85.1928
0
LINE
8
BLACK
6
CONTINUOUS
10
65.2987
20
-85.1928
11
65.3275
21
-85.19
0
LINE
8
BLACK
6
CONTINUOUS
10
65.3275
20
-85.19
11
65.6725
21
-85.19
0
LINE
8
BLACK
6
CONTINUOUS
10
65.6725
20
-85.19
11
65.7013
21
-85.1928
0
LINE
8
BLACK
6
CONTINUOUS
10
50.7013
20
-85.1928
11
50.7289
21
-85.2012
0
LINE
8
BLACK
6
CONTINUOUS
10
50.7289
20
-85.2012
11
50.7544
21
-85.2149
0
LINE
8
BLACK
6
CONTINUOUS
10
50.7544
20
-85.2149
11
50.7768
21
-85.2332
0
LINE
8
BLACK
6
CONTINUOUS
10
50.7768
20
-85.2332
11
50.7951
21
-85.2556
0
LINE
8
BLACK
6
CONTINUOUS
10
50.7951
20
-85.2556
11
50.8088
21
-85.2811
0
LINE
8
BLACK
6
CONTINUOUS
10
50.8088
20
-85.2811
11
50.8172
21
-85.3087
0
LINE
8
BLACK
6
CONTINUOUS
10
50.8172
20
-85.3087
11
50.82
21
-85.3375
0
LINE
8
BLACK
6
CONTINUOUS
10
50.82
20
-85.3375
11
50.82
21
-85.6325
0
LINE
8
BLACK
6
CONTINUOUS
10
50.82
20
-85.6325
11
50.8172
21
-85.6613
0
LINE
8
BLACK
6
CONTINUOUS
10
50.8172
20
-85.6613
11
50.8088
21
-85.6889
0
LINE
8
BLACK
6
CONTINUOUS
10
50.8088
20
-85.6889
11
50.7951
21
-85.7144
0
LINE
8
BLACK
6
CONTINUOUS
10
50.7951
20
-85.7144
11
50.7768
21
-85.7368
0
LINE
8
BLACK
6
CONTINUOUS
10
50.7768
20
-85.7368
11
50.7544
21
-85.7551
0
LINE
8
BLACK
6
CONTINUOUS
10
50.7544
20
-85.7551
11
50.7289
21
-85.7688
0
LINE
8
BLACK
6
CONTINUOUS
10
50.7289
20
-85.7688
11
50.7013
21
-85.7772
0
LINE
8
BLACK
6
CONTINUOUS
10
50.7013
20
-85.7772
11
50.6725
21
-85.78
0
LINE
8
BLACK
6
CONTINUOUS
10
50.6725
20
-85.78
11
50.3275
21
-85.78
0
LINE
8
BLACK
6
CONTINUOUS
10
50.3275
20
-85.78
11
50.2987
21
-85.7772
0
LINE
8
BLACK
6
CONTINUOUS
10
50.2987
20
-85.7772
11
50.2711
21
-85.7688
0
LINE
8
BLACK
6
CONTINUOUS
10
50.2711
20
-85.7688
11
50.2456
21
-85.7551
0
LINE
8
BLACK
6
CONTINUOUS
10
50.2456
20
-85.7551
11
50.2232
21
-85.7368
0
LINE
8
BLACK
6
CONTINUOUS
10
50.2232
20
-85.7368
11
50.2049
21
-85.7144
0
LINE
8
BLACK
6
CONTINUOUS
10
50.2049
20
-85.7144
11
50.1912
21
-85.6889
0
LINE
8
BLACK
6
CONTINUOUS
10
50.1912
20
-85.6889
11
50.1828
21
-85.6613
0
LINE
8
BLACK
6
CONTINUOUS
10
50.1828
20
-85.6613
11
50.18
21
-85.6325
0
LINE
8
BLACK
6
CONTINUOUS
10
50.18
20
-85.6325
11
50.18
21
-85.3375
0
LINE
8
BLACK
6
CONTINUOUS
10
50.18
20
-85.3375
11
50.1828
21
-85.3087
0
LINE
8
BLACK
6
CONTINUOUS
10
50.1828
20
-85.3087
11
50.1912
21
-85.2811
0
LINE
8
BLACK
6
CONTINUOUS
10
50.1912
20
-85.2811
11
50.2049
21
-85.2556
0
LINE
8
BLACK
6
CONTINUOUS
10
50.2049
20
-85.2556
11
50.2232
21
-85.2332
0
LINE
8
BLACK
6
CONTINUOUS
10
50.2232
20
-85.2332
11
50.2456
21
-85.2149
0
LINE
8
BLACK
6
CONTINUOUS
10
50.2456
20
-85.2149
11
50.2711
21
-85.2012
0
LINE
8
BLACK
6
CONTINUOUS
10
50.2711
20
-85.2012
11
50.2987
21
-85.1928
0
LINE
8
BLACK
6
CONTINUOUS
10
50.2987
20
-85.1928
11
50.3275
21
-85.19
0
LINE
8
BLACK
6
CONTINUOUS
10
50.3275
20
-85.19
11
50.6725
21
-85.19
0
LINE
8
BLACK
6
CONTINUOUS
10
50.6725
20
-85.19
11
50.7013
21
-85.1928
0
LINE
8
BLACK
6
CONTINUOUS
10
50.7013
20
-84.2228
11
50.7289
21
-84.2312
0
LINE
8
BLACK
6
CONTINUOUS
10
50.7289
20
-84.2312
11
50.7544
21
-84.2449
0
LINE
8
BLACK
6
CONTINUOUS
10
50.7544
20
-84.2449
11
50.7768
21
-84.2632
0
LINE
8
BLACK
6
CONTINUOUS
10
50.7768
20
-84.2632
11
50.7951
21
-84.2856
0
LINE
8
BLACK
6
CONTINUOUS
10
50.7951
20
-84.2856
11
50.8088
21
-84.3111
0
LINE
8
BLACK
6
CONTINUOUS
10
50.8088
20
-84.3111
11
50.8172
21
-84.3387
0
LINE
8
BLACK
6
CONTINUOUS
10
50.8172
20
-84.3387
11
50.82
21
-84.3675
0
LINE
8
BLACK
6
CONTINUOUS
10
50.82
20
-84.3675
11
50.82
21
-84.6625
0
LINE
8
BLACK
6
CONTINUOUS
10
50.82
20
-84.6625
11
50.8172
21
-84.6913
0
LINE
8
BLACK
6
CONTINUOUS
10
50.8172
20
-84.6913
11
50.8088
21
-84.7189
0
LINE
8
BLACK
6
CONTINUOUS
10
50.8088
20
-84.7189
11
50.7951
21
-84.7444
0
LINE
8
BLACK
6
CONTINUOUS
10
50.7951
20
-84.7444
11
50.7768
21
-84.7668
0
LINE
8
BLACK
6
CONTINUOUS
10
50.7768
20
-84.7668
11
50.7544
21
-84.7851
0
LINE
8
BLACK
6
CONTINUOUS
10
50.7544
20
-84.7851
11
50.7289
21
-84.7988
0
LINE
8
BLACK
6
CONTINUOUS
10
50.7289
20
-84.7988
11
50.7013
21
-84.8072
0
LINE
8
BLACK
6
CONTINUOUS
10
50.7013
20
-84.8072
11
50.6725
21
-84.81
0
LINE
8
BLACK
6
CONTINUOUS
10
50.6725
20
-84.81
11
50.3275
21
-84.81
0
LINE
8
BLACK
6
CONTINUOUS
10
50.3275
20
-84.81
11
50.2987
21
-84.8072
0
LINE
8
BLACK
6
CONTINUOUS
10
50.2987
20
-84.8072
11
50.2711
21
-84.7988
0
LINE
8
BLACK
6
CONTINUOUS
10
50.2711
20
-84.7988
11
50.2456
21
-84.7851
0
LINE
8
BLACK
6
CONTINUOUS
10
50.2456
20
-84.7851
11
50.2232
21
-84.7668
0
LINE
8
BLACK
6
CONTINUOUS
10
50.2232
20
-84.7668
11
50.2049
21
-84.7444
0
LINE
8
BLACK
6
CONTINUOUS
10
50.2049
20
-84.7444
11
50.1912
21
-84.7189
0
LINE
8
BLACK
6
CONTINUOUS
10
50.1912
20
-84.7189
11
50.1828
21
-84.6913
0
LINE
8
BLACK
6
CONTINUOUS
10
50.1828
20
-84.6913
11
50.18
21
-84.6625
0
LINE
8
BLACK
6
CONTINUOUS
10
50.18
20
-84.6625
11
50.18
21
-84.3675
0
LINE
8
BLACK
6
CONTINUOUS
10
50.18
20
-84.3675
11
50.1828
21
-84.3387
0
LINE
8
BLACK
6
CONTINUOUS
10
50.1828
20
-84.3387
11
50.1912
21
-84.3111
0
LINE
8
BLACK
6
CONTINUOUS
10
50.1912
20
-84.3111
11
50.2049
21
-84.2856
0
LINE
8
BLACK
6
CONTINUOUS
10
50.2049
20
-84.2856
11
50.2232
21
-84.2632
0
LINE
8
BLACK
6
CONTINUOUS
10
50.2232
20
-84.2632
11
50.2456
21
-84.2449
0
LINE
8
BLACK
6
CONTINUOUS
10
50.2456
20
-84.2449
11
50.2711
21
-84.2312
0
LINE
8
BLACK
6
CONTINUOUS
10
50.2711
20
-84.2312
11
50.2987
21
-84.2228
0
LINE
8
BLACK
6
CONTINUOUS
10
50.2987
20
-84.2228
11
50.3275
21
-84.22
0
LINE
8
BLACK
6
CONTINUOUS
10
50.3275
20
-84.22
11
50.6725
21
-84.22
0
LINE
8
BLACK
6
CONTINUOUS
10
50.6725
20
-84.22
11
50.7013
21
-84.2228
0
LINE
8
BLACK
6
CONTINUOUS
10
65.7013
20
-84.2228
11
65.729
21
-84.2312
0
LINE
8
BLACK
6
CONTINUOUS
10
65.729
20
-84.2312
11
65.7545
21
-84.2449
0
LINE
8
BLACK
6
CONTINUOUS
10
65.7545
20
-84.2449
11
65.7768
21
-84.2632
0
LINE
8
BLACK
6
CONTINUOUS
10
65.7768
20
-84.2632
11
65.7952
21
-84.2856
0
LINE
8
BLACK
6
CONTINUOUS
10
65.7952
20
-84.2856
11
65.8088
21
-84.3111
0
LINE
8
BLACK
6
CONTINUOUS
10
65.8088
20
-84.3111
11
65.8172
21
-84.3387
0
LINE
8
BLACK
6
CONTINUOUS
10
65.8172
20
-84.3387
11
65.82
21
-84.3675
0
LINE
8
BLACK
6
CONTINUOUS
10
65.82
20
-84.3675
11
65.82
21
-84.6625
0
LINE
8
BLACK
6
CONTINUOUS
10
65.82
20
-84.6625
11
65.8172
21
-84.6913
0
LINE
8
BLACK
6
CONTINUOUS
10
65.8172
20
-84.6913
11
65.8088
21
-84.7189
0
LINE
8
BLACK
6
CONTINUOUS
10
65.8088
20
-84.7189
11
65.7952
21
-84.7444
0
LINE
8
BLACK
6
CONTINUOUS
10
65.7952
20
-84.7444
11
65.7768
21
-84.7668
0
LINE
8
BLACK
6
CONTINUOUS
10
65.7768
20
-84.7668
11
65.7545
21
-84.7851
0
LINE
8
BLACK
6
CONTINUOUS
10
65.7545
20
-84.7851
11
65.729
21
-84.7988
0
LINE
8
BLACK
6
CONTINUOUS
10
65.729
20
-84.7988
11
65.7013
21
-84.8072
0
LINE
8
BLACK
6
CONTINUOUS
10
65.7013
20
-84.8072
11
65.6725
21
-84.81
0
LINE
8
BLACK
6
CONTINUOUS
10
65.6725
20
-84.81
11
65.3275
21
-84.81
0
LINE
8
BLACK
6
CONTINUOUS
10
65.3275
20
-84.81
11
65.2987
21
-84.8072
0
LINE
8
BLACK
6
CONTINUOUS
10
65.2987
20
-84.8072
11
65.2711
21
-84.7988
0
LINE
8
BLACK
6
CONTINUOUS
10
65.2711
20
-84.7988
11
65.2456
21
-84.7851
0
LINE
8
BLACK
6
CONTINUOUS
10
65.2456
20
-84.7851
11
65.2232
21
-84.7668
0
LINE
8
BLACK
6
CONTINUOUS
10
65.2232
20
-84.7668
11
65.2049
21
-84.7444
0
LINE
8
BLACK
6
CONTINUOUS
10
65.2049
20
-84.7444
11
65.1912
21
-84.7189
0
LINE
8
BLACK
6
CONTINUOUS
10
65.1912
20
-84.7189
11
65.1829
21
-84.6913
0
LINE
8
BLACK
6
CONTINUOUS
10
65.1829
20
-84.6913
11
65.18
21
-84.6625
0
LINE
8
BLACK
6
CONTINUOUS
10
65.18
20
-84.6625
11
65.18
21
-84.3675
0
LINE
8
BLACK
6
CONTINUOUS
10
65.18
20
-84.3675
11
65.1829
21
-84.3387
0
LINE
8
BLACK
6
CONTINUOUS
10
65.1829
20
-84.3387
11
65.1912
21
-84.3111
0
LINE
8
BLACK
6
CONTINUOUS
10
65.1912
20
-84.3111
11
65.2049
21
-84.2856
0
LINE
8
BLACK
6
CONTINUOUS
10
65.2049
20
-84.2856
11
65.2232
21
-84.2632
0
LINE
8
BLACK
6
CONTINUOUS
10
65.2232
20
-84.2632
11
65.2456
21
-84.2449
0
LINE
8
BLACK
6
CONTINUOUS
10
65.2456
20
-84.2449
11
65.2711
21
-84.2312
0
LINE
8
BLACK
6
CONTINUOUS
10
65.2711
20
-84.2312
11
65.2987
21
-84.2228
0
LINE
8
BLACK
6
CONTINUOUS
10
65.2987
20
-84.2228
11
65.3275
21
-84.22
0
LINE
8
BLACK
6
CONTINUOUS
10
65.3275
20
-84.22
11
65.6725
21
-84.22
0
LINE
8
BLACK
6
CONTINUOUS
10
65.6725
20
-84.22
11
65.7013
21
-84.2228
0
LINE
8
BLACK
6
CONTINUOUS
10
72.7013
20
-84.1928
11
72.729
21
-84.2012
0
LINE
8
BLACK
6
CONTINUOUS
10
72.729
20
-84.2012
11
72.7545
21
-84.2149
0
LINE
8
BLACK
6
CONTINUOUS
10
72.7545
20
-84.2149
11
72.7768
21
-84.2332
0
LINE
8
BLACK
6
CONTINUOUS
10
72.7768
20
-84.2332
11
72.7952
21
-84.2556
0
LINE
8
BLACK
6
CONTINUOUS
10
72.7952
20
-84.2556
11
72.8088
21
-84.2811
0
LINE
8
BLACK
6
CONTINUOUS
10
72.8088
20
-84.2811
11
72.8172
21
-84.3087
0
LINE
8
BLACK
6
CONTINUOUS
10
72.8172
20
-84.3087
11
72.82
21
-84.3375
0
LINE
8
BLACK
6
CONTINUOUS
10
72.82
20
-84.3375
11
72.82
21
-84.6325
0
LINE
8
BLACK
6
CONTINUOUS
10
72.82
20
-84.6325
11
72.8172
21
-84.6613
0
LINE
8
BLACK
6
CONTINUOUS
10
72.8172
20
-84.6613
11
72.8088
21
-84.6889
0
LINE
8
BLACK
6
CONTINUOUS
10
72.8088
20
-84.6889
11
72.7952
21
-84.7144
0
LINE
8
BLACK
6
CONTINUOUS
10
72.7952
20
-84.7144
11
72.7768
21
-84.7368
0
LINE
8
BLACK
6
CONTINUOUS
10
72.7768
20
-84.7368
11
72.7545
21
-84.7551
0
LINE
8
BLACK
6
CONTINUOUS
10
72.7545
20
-84.7551
11
72.729
21
-84.7688
0
LINE
8
BLACK
6
CONTINUOUS
10
72.729
20
-84.7688
11
72.7013
21
-84.7772
0
LINE
8
BLACK
6
CONTINUOUS
10
72.7013
20
-84.7772
11
72.6725
21
-84.78
0
LINE
8
BLACK
6
CONTINUOUS
10
72.6725
20
-84.78
11
72.3275
21
-84.78
0
LINE
8
BLACK
6
CONTINUOUS
10
72.3275
20
-84.78
11
72.2987
21
-84.7772
0
LINE
8
BLACK
6
CONTINUOUS
10
72.2987
20
-84.7772
11
72.2711
21
-84.7688
0
LINE
8
BLACK
6
CONTINUOUS
10
72.2711
20
-84.7688
11
72.2456
21
-84.7551
0
LINE
8
BLACK
6
CONTINUOUS
10
72.2456
20
-84.7551
11
72.2232
21
-84.7368
0
LINE
8
BLACK
6
CONTINUOUS
10
72.2232
20
-84.7368
11
72.2049
21
-84.7144
0
LINE
8
BLACK
6
CONTINUOUS
10
72.2049
20
-84.7144
11
72.1912
21
-84.6889
0
LINE
8
BLACK
6
CONTINUOUS
10
72.1912
20
-84.6889
11
72.1829
21
-84.6613
0
LINE
8
BLACK
6
CONTINUOUS
10
72.1829
20
-84.6613
11
72.18
21
-84.6325
0
LINE
8
BLACK
6
CONTINUOUS
10
72.18
20
-84.6325
11
72.18
21
-84.3375
0
LINE
8
BLACK
6
CONTINUOUS
10
72.18
20
-84.3375
11
72.1829
21
-84.3087
0
LINE
8
BLACK
6
CONTINUOUS
10
72.1829
20
-84.3087
11
72.1912
21
-84.2811
0
LINE
8
BLACK
6
CONTINUOUS
10
72.1912
20
-84.2811
11
72.2049
21
-84.2556
0
LINE
8
BLACK
6
CONTINUOUS
10
72.2049
20
-84.2556
11
72.2232
21
-84.2332
0
LINE
8
BLACK
6
CONTINUOUS
10
72.2232
20
-84.2332
11
72.2456
21
-84.2149
0
LINE
8
BLACK
6
CONTINUOUS
10
72.2456
20
-84.2149
11
72.2711
21
-84.2012
0
LINE
8
BLACK
6
CONTINUOUS
10
72.2711
20
-84.2012
11
72.2987
21
-84.1928
0
LINE
8
BLACK
6
CONTINUOUS
10
72.2987
20
-84.1928
11
72.3275
21
-84.19
0
LINE
8
BLACK
6
CONTINUOUS
10
72.3275
20
-84.19
11
72.6725
21
-84.19
0
LINE
8
BLACK
6
CONTINUOUS
10
72.6725
20
-84.19
11
72.7013
21
-84.1928
0
LINE
8
BLACK
6
CONTINUOUS
10
57.7013
20
-84.1928
11
57.7289
21
-84.2012
0
LINE
8
BLACK
6
CONTINUOUS
10
57.7289
20
-84.2012
11
57.7544
21
-84.2149
0
LINE
8
BLACK
6
CONTINUOUS
10
57.7544
20
-84.2149
11
57.7768
21
-84.2332
0
LINE
8
BLACK
6
CONTINUOUS
10
57.7768
20
-84.2332
11
57.7951
21
-84.2556
0
LINE
8
BLACK
6
CONTINUOUS
10
57.7951
20
-84.2556
11
57.8088
21
-84.2811
0
LINE
8
BLACK
6
CONTINUOUS
10
57.8088
20
-84.2811
11
57.8172
21
-84.3087
0
LINE
8
BLACK
6
CONTINUOUS
10
57.8172
20
-84.3087
11
57.82
21
-84.3375
0
LINE
8
BLACK
6
CONTINUOUS
10
57.82
20
-84.3375
11
57.82
21
-84.6325
0
LINE
8
BLACK
6
CONTINUOUS
10
57.82
20
-84.6325
11
57.8172
21
-84.6613
0
LINE
8
BLACK
6
CONTINUOUS
10
57.8172
20
-84.6613
11
57.8088
21
-84.6889
0
LINE
8
BLACK
6
CONTINUOUS
10
57.8088
20
-84.6889
11
57.7951
21
-84.7144
0
LINE
8
BLACK
6
CONTINUOUS
10
57.7951
20
-84.7144
11
57.7768
21
-84.7368
0
LINE
8
BLACK
6
CONTINUOUS
10
57.7768
20
-84.7368
11
57.7544
21
-84.7551
0
LINE
8
BLACK
6
CONTINUOUS
10
57.7544
20
-84.7551
11
57.7289
21
-84.7688
0
LINE
8
BLACK
6
CONTINUOUS
10
57.7289
20
-84.7688
11
57.7013
21
-84.7772
0
LINE
8
BLACK
6
CONTINUOUS
10
57.7013
20
-84.7772
11
57.6725
21
-84.78
0
LINE
8
BLACK
6
CONTINUOUS
10
57.6725
20
-84.78
11
57.3275
21
-84.78
0
LINE
8
BLACK
6
CONTINUOUS
10
57.3275
20
-84.78
11
57.2987
21
-84.7772
0
LINE
8
BLACK
6
CONTINUOUS
10
57.2987
20
-84.7772
11
57.2711
21
-84.7688
0
LINE
8
BLACK
6
CONTINUOUS
10
57.2711
20
-84.7688
11
57.2456
21
-84.7551
0
LINE
8
BLACK
6
CONTINUOUS
10
57.2456
20
-84.7551
11
57.2232
21
-84.7368
0
LINE
8
BLACK
6
CONTINUOUS
10
57.2232
20
-84.7368
11
57.2049
21
-84.7144
0
LINE
8
BLACK
6
CONTINUOUS
10
57.2049
20
-84.7144
11
57.1912
21
-84.6889
0
LINE
8
BLACK
6
CONTINUOUS
10
57.1912
20
-84.6889
11
57.1828
21
-84.6613
0
LINE
8
BLACK
6
CONTINUOUS
10
57.1828
20
-84.6613
11
57.18
21
-84.6325
0
LINE
8
BLACK
6
CONTINUOUS
10
57.18
20
-84.6325
11
57.18
21
-84.3375
0
LINE
8
BLACK
6
CONTINUOUS
10
57.18
20
-84.3375
11
57.1828
21
-84.3087
0
LINE
8
BLACK
6
CONTINUOUS
10
57.1828
20
-84.3087
11
57.1912
21
-84.2811
0
LINE
8
BLACK
6
CONTINUOUS
10
57.1912
20
-84.2811
11
57.2049
21
-84.2556
0
LINE
8
BLACK
6
CONTINUOUS
10
57.2049
20
-84.2556
11
57.2232
21
-84.2332
0
LINE
8
BLACK
6
CONTINUOUS
10
57.2232
20
-84.2332
11
57.2456
21
-84.2149
0
LINE
8
BLACK
6
CONTINUOUS
10
57.2456
20
-84.2149
11
57.2711
21
-84.2012
0
LINE
8
BLACK
6
CONTINUOUS
10
57.2711
20
-84.2012
11
57.2987
21
-84.1928
0
LINE
8
BLACK
6
CONTINUOUS
10
57.2987
20
-84.1928
11
57.3275
21
-84.19
0
LINE
8
BLACK
6
CONTINUOUS
10
57.3275
20
-84.19
11
57.6725
21
-84.19
0
LINE
8
BLACK
6
CONTINUOUS
10
57.6725
20
-84.19
11
57.7013
21
-84.1928
0
LINE
8
BLACK
6
CONTINUOUS
10
52.9013
20
-84.1928
11
52.9289
21
-84.2012
0
LINE
8
BLACK
6
CONTINUOUS
10
52.9289
20
-84.2012
11
52.9544
21
-84.2149
0
LINE
8
BLACK
6
CONTINUOUS
10
52.9544
20
-84.2149
11
52.9768
21
-84.2332
0
LINE
8
BLACK
6
CONTINUOUS
10
52.9768
20
-84.2332
11
52.9951
21
-84.2556
0
LINE
8
BLACK
6
CONTINUOUS
10
52.9951
20
-84.2556
11
53.0088
21
-84.2811
0
LINE
8
BLACK
6
CONTINUOUS
10
53.0088
20
-84.2811
11
53.0172
21
-84.3087
0
LINE
8
BLACK
6
CONTINUOUS
10
53.0172
20
-84.3087
11
53.02
21
-84.3375
0
LINE
8
BLACK
6
CONTINUOUS
10
53.02
20
-84.3375
11
53.02
21
-84.6325
0
LINE
8
BLACK
6
CONTINUOUS
10
53.02
20
-84.6325
11
53.0172
21
-84.6613
0
LINE
8
BLACK
6
CONTINUOUS
10
53.0172
20
-84.6613
11
53.0088
21
-84.6889
0
LINE
8
BLACK
6
CONTINUOUS
10
53.0088
20
-84.6889
11
52.9951
21
-84.7144
0
LINE
8
BLACK
6
CONTINUOUS
10
52.9951
20
-84.7144
11
52.9768
21
-84.7368
0
LINE
8
BLACK
6
CONTINUOUS
10
52.9768
20
-84.7368
11
52.9544
21
-84.7551
0
LINE
8
BLACK
6
CONTINUOUS
10
52.9544
20
-84.7551
11
52.9289
21
-84.7688
0
LINE
8
BLACK
6
CONTINUOUS
10
52.9289
20
-84.7688
11
52.9013
21
-84.7772
0
LINE
8
BLACK
6
CONTINUOUS
10
52.9013
20
-84.7772
11
52.8725
21
-84.78
0
LINE
8
BLACK
6
CONTINUOUS
10
52.8725
20
-84.78
11
52.5275
21
-84.78
0
LINE
8
BLACK
6
CONTINUOUS
10
52.5275
20
-84.78
11
52.4987
21
-84.7772
0
LINE
8
BLACK
6
CONTINUOUS
10
52.4987
20
-84.7772
11
52.4711
21
-84.7688
0
LINE
8
BLACK
6
CONTINUOUS
10
52.4711
20
-84.7688
11
52.4456
21
-84.7551
0
LINE
8
BLACK
6
CONTINUOUS
10
52.4456
20
-84.7551
11
52.4232
21
-84.7368
0
LINE
8
BLACK
6
CONTINUOUS
10
52.4232
20
-84.7368
11
52.4049
21
-84.7144
0
LINE
8
BLACK
6
CONTINUOUS
10
52.4049
20
-84.7144
11
52.3912
21
-84.6889
0
LINE
8
BLACK
6
CONTINUOUS
10
52.3912
20
-84.6889
11
52.3828
21
-84.6613
0
LINE
8
BLACK
6
CONTINUOUS
10
52.3828
20
-84.6613
11
52.38
21
-84.6325
0
LINE
8
BLACK
6
CONTINUOUS
10
52.38
20
-84.6325
11
52.38
21
-84.3375
0
LINE
8
BLACK
6
CONTINUOUS
10
52.38
20
-84.3375
11
52.3828
21
-84.3087
0
LINE
8
BLACK
6
CONTINUOUS
10
52.3828
20
-84.3087
11
52.3912
21
-84.2811
0
LINE
8
BLACK
6
CONTINUOUS
10
52.3912
20
-84.2811
11
52.4049
21
-84.2556
0
LINE
8
BLACK
6
CONTINUOUS
10
52.4049
20
-84.2556
11
52.4232
21
-84.2332
0
LINE
8
BLACK
6
CONTINUOUS
10
52.4232
20
-84.2332
11
52.4456
21
-84.2149
0
LINE
8
BLACK
6
CONTINUOUS
10
52.4456
20
-84.2149
11
52.4711
21
-84.2012
0
LINE
8
BLACK
6
CONTINUOUS
10
52.4711
20
-84.2012
11
52.4987
21
-84.1928
0
LINE
8
BLACK
6
CONTINUOUS
10
52.4987
20
-84.1928
11
52.5275
21
-84.19
0
LINE
8
BLACK
6
CONTINUOUS
10
52.5275
20
-84.19
11
52.8725
21
-84.19
0
LINE
8
BLACK
6
CONTINUOUS
10
52.8725
20
-84.19
11
52.9013
21
-84.1928
0
LINE
8
BLACK
6
CONTINUOUS
10
67.9013
20
-84.1928
11
67.929
21
-84.2012
0
LINE
8
BLACK
6
CONTINUOUS
10
67.929
20
-84.2012
11
67.9545
21
-84.2149
0
LINE
8
BLACK
6
CONTINUOUS
10
67.9545
20
-84.2149
11
67.9768
21
-84.2332
0
LINE
8
BLACK
6
CONTINUOUS
10
67.9768
20
-84.2332
11
67.9952
21
-84.2556
0
LINE
8
BLACK
6
CONTINUOUS
10
67.9952
20
-84.2556
11
68.0088
21
-84.2811
0
LINE
8
BLACK
6
CONTINUOUS
10
68.0088
20
-84.2811
11
68.0172
21
-84.3087
0
LINE
8
BLACK
6
CONTINUOUS
10
68.0172
20
-84.3087
11
68.02
21
-84.3375
0
LINE
8
BLACK
6
CONTINUOUS
10
68.02
20
-84.3375
11
68.02
21
-84.6325
0
LINE
8
BLACK
6
CONTINUOUS
10
68.02
20
-84.6325
11
68.0172
21
-84.6613
0
LINE
8
BLACK
6
CONTINUOUS
10
68.0172
20
-84.6613
11
68.0088
21
-84.6889
0
LINE
8
BLACK
6
CONTINUOUS
10
68.0088
20
-84.6889
11
67.9952
21
-84.7144
0
LINE
8
BLACK
6
CONTINUOUS
10
67.9952
20
-84.7144
11
67.9768
21
-84.7368
0
LINE
8
BLACK
6
CONTINUOUS
10
67.9768
20
-84.7368
11
67.9545
21
-84.7551
0
LINE
8
BLACK
6
CONTINUOUS
10
67.9545
20
-84.7551
11
67.929
21
-84.7688
0
LINE
8
BLACK
6
CONTINUOUS
10
67.929
20
-84.7688
11
67.9013
21
-84.7772
0
LINE
8
BLACK
6
CONTINUOUS
10
67.9013
20
-84.7772
11
67.8725
21
-84.78
0
LINE
8
BLACK
6
CONTINUOUS
10
67.8725
20
-84.78
11
67.5275
21
-84.78
0
LINE
8
BLACK
6
CONTINUOUS
10
67.5275
20
-84.78
11
67.4987
21
-84.7772
0
LINE
8
BLACK
6
CONTINUOUS
10
67.4987
20
-84.7772
11
67.4711
21
-84.7688
0
LINE
8
BLACK
6
CONTINUOUS
10
67.4711
20
-84.7688
11
67.4456
21
-84.7551
0
LINE
8
BLACK
6
CONTINUOUS
10
67.4456
20
-84.7551
11
67.4232
21
-84.7368
0
LINE
8
BLACK
6
CONTINUOUS
10
67.4232
20
-84.7368
11
67.4049
21
-84.7144
0
LINE
8
BLACK
6
CONTINUOUS
10
67.4049
20
-84.7144
11
67.3912
21
-84.6889
0
LINE
8
BLACK
6
CONTINUOUS
10
67.3912
20
-84.6889
11
67.3829
21
-84.6613
0
LINE
8
BLACK
6
CONTINUOUS
10
67.3829
20
-84.6613
11
67.38
21
-84.6325
0
LINE
8
BLACK
6
CONTINUOUS
10
67.38
20
-84.6325
11
67.38
21
-84.3375
0
LINE
8
BLACK
6
CONTINUOUS
10
67.38
20
-84.3375
11
67.3829
21
-84.3087
0
LINE
8
BLACK
6
CONTINUOUS
10
67.3829
20
-84.3087
11
67.3912
21
-84.2811
0
LINE
8
BLACK
6
CONTINUOUS
10
67.3912
20
-84.2811
11
67.4049
21
-84.2556
0
LINE
8
BLACK
6
CONTINUOUS
10
67.4049
20
-84.2556
11
67.4232
21
-84.2332
0
LINE
8
BLACK
6
CONTINUOUS
10
67.4232
20
-84.2332
11
67.4456
21
-84.2149
0
LINE
8
BLACK
6
CONTINUOUS
10
67.4456
20
-84.2149
11
67.4711
21
-84.2012
0
LINE
8
BLACK
6
CONTINUOUS
10
67.4711
20
-84.2012
11
67.4987
21
-84.1928
0
LINE
8
BLACK
6
CONTINUOUS
10
67.4987
20
-84.1928
11
67.5275
21
-84.19
0
LINE
8
BLACK
6
CONTINUOUS
10
67.5275
20
-84.19
11
67.8725
21
-84.19
0
LINE
8
BLACK
6
CONTINUOUS
10
67.8725
20
-84.19
11
67.9013
21
-84.1928
0
LINE
8
BLACK
6
CONTINUOUS
10
52.9013
20
-83.2228
11
52.9289
21
-83.2312
0
LINE
8
BLACK
6
CONTINUOUS
10
52.9289
20
-83.2312
11
52.9544
21
-83.2449
0
LINE
8
BLACK
6
CONTINUOUS
10
52.9544
20
-83.2449
11
52.9768
21
-83.2632
0
LINE
8
BLACK
6
CONTINUOUS
10
52.9768
20
-83.2632
11
52.9951
21
-83.2856
0
LINE
8
BLACK
6
CONTINUOUS
10
52.9951
20
-83.2856
11
53.0088
21
-83.3111
0
LINE
8
BLACK
6
CONTINUOUS
10
53.0088
20
-83.3111
11
53.0172
21
-83.3387
0
LINE
8
BLACK
6
CONTINUOUS
10
53.0172
20
-83.3387
11
53.02
21
-83.3675
0
LINE
8
BLACK
6
CONTINUOUS
10
53.02
20
-83.3675
11
53.02
21
-83.6625
0
LINE
8
BLACK
6
CONTINUOUS
10
53.02
20
-83.6625
11
53.0172
21
-83.6913
0
LINE
8
BLACK
6
CONTINUOUS
10
53.0172
20
-83.6913
11
53.0088
21
-83.7189
0
LINE
8
BLACK
6
CONTINUOUS
10
53.0088
20
-83.7189
11
52.9951
21
-83.7444
0
LINE
8
BLACK
6
CONTINUOUS
10
52.9951
20
-83.7444
11
52.9768
21
-83.7668
0
LINE
8
BLACK
6
CONTINUOUS
10
52.9768
20
-83.7668
11
52.9544
21
-83.7851
0
LINE
8
BLACK
6
CONTINUOUS
10
52.9544
20
-83.7851
11
52.9289
21
-83.7988
0
LINE
8
BLACK
6
CONTINUOUS
10
52.9289
20
-83.7988
11
52.9013
21
-83.8072
0
LINE
8
BLACK
6
CONTINUOUS
10
52.9013
20
-83.8072
11
52.8725
21
-83.81
0
LINE
8
BLACK
6
CONTINUOUS
10
52.8725
20
-83.81
11
52.5275
21
-83.81
0
LINE
8
BLACK
6
CONTINUOUS
10
52.5275
20
-83.81
11
52.4987
21
-83.8072
0
LINE
8
BLACK
6
CONTINUOUS
10
52.4987
20
-83.8072
11
52.4711
21
-83.7988
0
LINE
8
BLACK
6
CONTINUOUS
10
52.4711
20
-83.7988
11
52.4456
21
-83.7851
0
LINE
8
BLACK
6
CONTINUOUS
10
52.4456
20
-83.7851
11
52.4232
21
-83.7668
0
LINE
8
BLACK
6
CONTINUOUS
10
52.4232
20
-83.7668
11
52.4049
21
-83.7444
0
LINE
8
BLACK
6
CONTINUOUS
10
52.4049
20
-83.7444
11
52.3912
21
-83.7189
0
LINE
8
BLACK
6
CONTINUOUS
10
52.3912
20
-83.7189
11
52.3828
21
-83.6913
0
LINE
8
BLACK
6
CONTINUOUS
10
52.3828
20
-83.6913
11
52.38
21
-83.6625
0
LINE
8
BLACK
6
CONTINUOUS
10
52.38
20
-83.6625
11
52.38
21
-83.3675
0
LINE
8
BLACK
6
CONTINUOUS
10
52.38
20
-83.3675
11
52.3828
21
-83.3387
0
LINE
8
BLACK
6
CONTINUOUS
10
52.3828
20
-83.3387
11
52.3912
21
-83.3111
0
LINE
8
BLACK
6
CONTINUOUS
10
52.3912
20
-83.3111
11
52.4049
21
-83.2856
0
LINE
8
BLACK
6
CONTINUOUS
10
52.4049
20
-83.2856
11
52.4232
21
-83.2632
0
LINE
8
BLACK
6
CONTINUOUS
10
52.4232
20
-83.2632
11
52.4456
21
-83.2449
0
LINE
8
BLACK
6
CONTINUOUS
10
52.4456
20
-83.2449
11
52.4711
21
-83.2312
0
LINE
8
BLACK
6
CONTINUOUS
10
52.4711
20
-83.2312
11
52.4987
21
-83.2228
0
LINE
8
BLACK
6
CONTINUOUS
10
52.4987
20
-83.2228
11
52.5275
21
-83.22
0
LINE
8
BLACK
6
CONTINUOUS
10
52.5275
20
-83.22
11
52.8725
21
-83.22
0
LINE
8
BLACK
6
CONTINUOUS
10
52.8725
20
-83.22
11
52.9013
21
-83.2228
0
LINE
8
BLACK
6
CONTINUOUS
10
57.7013
20
-83.2228
11
57.7289
21
-83.2312
0
LINE
8
BLACK
6
CONTINUOUS
10
57.7289
20
-83.2312
11
57.7544
21
-83.2449
0
LINE
8
BLACK
6
CONTINUOUS
10
57.7544
20
-83.2449
11
57.7768
21
-83.2632
0
LINE
8
BLACK
6
CONTINUOUS
10
57.7768
20
-83.2632
11
57.7951
21
-83.2856
0
LINE
8
BLACK
6
CONTINUOUS
10
57.7951
20
-83.2856
11
57.8088
21
-83.3111
0
LINE
8
BLACK
6
CONTINUOUS
10
57.8088
20
-83.3111
11
57.8172
21
-83.3387
0
LINE
8
BLACK
6
CONTINUOUS
10
57.8172
20
-83.3387
11
57.82
21
-83.3675
0
LINE
8
BLACK
6
CONTINUOUS
10
57.82
20
-83.3675
11
57.82
21
-83.6625
0
LINE
8
BLACK
6
CONTINUOUS
10
57.82
20
-83.6625
11
57.8172
21
-83.6913
0
LINE
8
BLACK
6
CONTINUOUS
10
57.8172
20
-83.6913
11
57.8088
21
-83.7189
0
LINE
8
BLACK
6
CONTINUOUS
10
57.8088
20
-83.7189
11
57.7951
21
-83.7444
0
LINE
8
BLACK
6
CONTINUOUS
10
57.7951
20
-83.7444
11
57.7768
21
-83.7668
0
LINE
8
BLACK
6
CONTINUOUS
10
57.7768
20
-83.7668
11
57.7544
21
-83.7851
0
LINE
8
BLACK
6
CONTINUOUS
10
57.7544
20
-83.7851
11
57.7289
21
-83.7988
0
LINE
8
BLACK
6
CONTINUOUS
10
57.7289
20
-83.7988
11
57.7013
21
-83.8072
0
LINE
8
BLACK
6
CONTINUOUS
10
57.7013
20
-83.8072
11
57.6725
21
-83.81
0
LINE
8
BLACK
6
CONTINUOUS
10
57.6725
20
-83.81
11
57.3275
21
-83.81
0
LINE
8
BLACK
6
CONTINUOUS
10
57.3275
20
-83.81
11
57.2987
21
-83.8072
0
LINE
8
BLACK
6
CONTINUOUS
10
57.2987
20
-83.8072
11
57.2711
21
-83.7988
0
LINE
8
BLACK
6
CONTINUOUS
10
57.2711
20
-83.7988
11
57.2456
21
-83.7851
0
LINE
8
BLACK
6
CONTINUOUS
10
57.2456
20
-83.7851
11
57.2232
21
-83.7668
0
LINE
8
BLACK
6
CONTINUOUS
10
57.2232
20
-83.7668
11
57.2049
21
-83.7444
0
LINE
8
BLACK
6
CONTINUOUS
10
57.2049
20
-83.7444
11
57.1912
21
-83.7189
0
LINE
8
BLACK
6
CONTINUOUS
10
57.1912
20
-83.7189
11
57.1828
21
-83.6913
0
LINE
8
BLACK
6
CONTINUOUS
10
57.1828
20
-83.6913
11
57.18
21
-83.6625
0
LINE
8
BLACK
6
CONTINUOUS
10
57.18
20
-83.6625
11
57.18
21
-83.3675
0
LINE
8
BLACK
6
CONTINUOUS
10
57.18
20
-83.3675
11
57.1828
21
-83.3387
0
LINE
8
BLACK
6
CONTINUOUS
10
57.1828
20
-83.3387
11
57.1912
21
-83.3111
0
LINE
8
BLACK
6
CONTINUOUS
10
57.1912
20
-83.3111
11
57.2049
21
-83.2856
0
LINE
8
BLACK
6
CONTINUOUS
10
57.2049
20
-83.2856
11
57.2232
21
-83.2632
0
LINE
8
BLACK
6
CONTINUOUS
10
57.2232
20
-83.2632
11
57.2456
21
-83.2449
0
LINE
8
BLACK
6
CONTINUOUS
10
57.2456
20
-83.2449
11
57.2711
21
-83.2312
0
LINE
8
BLACK
6
CONTINUOUS
10
57.2711
20
-83.2312
11
57.2987
21
-83.2228
0
LINE
8
BLACK
6
CONTINUOUS
10
57.2987
20
-83.2228
11
57.3275
21
-83.22
0
LINE
8
BLACK
6
CONTINUOUS
10
57.3275
20
-83.22
11
57.6725
21
-83.22
0
LINE
8
BLACK
6
CONTINUOUS
10
57.6725
20
-83.22
11
57.7013
21
-83.2228
0
LINE
8
BLACK
6
CONTINUOUS
10
72.7013
20
-83.2228
11
72.729
21
-83.2312
0
LINE
8
BLACK
6
CONTINUOUS
10
72.729
20
-83.2312
11
72.7545
21
-83.2449
0
LINE
8
BLACK
6
CONTINUOUS
10
72.7545
20
-83.2449
11
72.7768
21
-83.2632
0
LINE
8
BLACK
6
CONTINUOUS
10
72.7768
20
-83.2632
11
72.7952
21
-83.2856
0
LINE
8
BLACK
6
CONTINUOUS
10
72.7952
20
-83.2856
11
72.8088
21
-83.3111
0
LINE
8
BLACK
6
CONTINUOUS
10
72.8088
20
-83.3111
11
72.8172
21
-83.3387
0
LINE
8
BLACK
6
CONTINUOUS
10
72.8172
20
-83.3387
11
72.82
21
-83.3675
0
LINE
8
BLACK
6
CONTINUOUS
10
72.82
20
-83.3675
11
72.82
21
-83.6625
0
LINE
8
BLACK
6
CONTINUOUS
10
72.82
20
-83.6625
11
72.8172
21
-83.6913
0
LINE
8
BLACK
6
CONTINUOUS
10
72.8172
20
-83.6913
11
72.8088
21
-83.7189
0
LINE
8
BLACK
6
CONTINUOUS
10
72.8088
20
-83.7189
11
72.7952
21
-83.7444
0
LINE
8
BLACK
6
CONTINUOUS
10
72.7952
20
-83.7444
11
72.7768
21
-83.7668
0
LINE
8
BLACK
6
CONTINUOUS
10
72.7768
20
-83.7668
11
72.7545
21
-83.7851
0
LINE
8
BLACK
6
CONTINUOUS
10
72.7545
20
-83.7851
11
72.729
21
-83.7988
0
LINE
8
BLACK
6
CONTINUOUS
10
72.729
20
-83.7988
11
72.7013
21
-83.8072
0
LINE
8
BLACK
6
CONTINUOUS
10
72.7013
20
-83.8072
11
72.6725
21
-83.81
0
LINE
8
BLACK
6
CONTINUOUS
10
72.6725
20
-83.81
11
72.3275
21
-83.81
0
LINE
8
BLACK
6
CONTINUOUS
10
72.3275
20
-83.81
11
72.2987
21
-83.8072
0
LINE
8
BLACK
6
CONTINUOUS
10
72.2987
20
-83.8072
11
72.2711
21
-83.7988
0
LINE
8
BLACK
6
CONTINUOUS
10
72.2711
20
-83.7988
11
72.2456
21
-83.7851
0
LINE
8
BLACK
6
CONTINUOUS
10
72.2456
20
-83.7851
11
72.2232
21
-83.7668
0
LINE
8
BLACK
6
CONTINUOUS
10
72.2232
20
-83.7668
11
72.2049
21
-83.7444
0
LINE
8
BLACK
6
CONTINUOUS
10
72.2049
20
-83.7444
11
72.1912
21
-83.7189
0
LINE
8
BLACK
6
CONTINUOUS
10
72.1912
20
-83.7189
11
72.1829
21
-83.6913
0
LINE
8
BLACK
6
CONTINUOUS
10
72.1829
20
-83.6913
11
72.18
21
-83.6625
0
LINE
8
BLACK
6
CONTINUOUS
10
72.18
20
-83.6625
11
72.18
21
-83.3675
0
LINE
8
BLACK
6
CONTINUOUS
10
72.18
20
-83.3675
11
72.1829
21
-83.3387
0
LINE
8
BLACK
6
CONTINUOUS
10
72.1829
20
-83.3387
11
72.1912
21
-83.3111
0
LINE
8
BLACK
6
CONTINUOUS
10
72.1912
20
-83.3111
11
72.2049
21
-83.2856
0
LINE
8
BLACK
6
CONTINUOUS
10
72.2049
20
-83.2856
11
72.2232
21
-83.2632
0
LINE
8
BLACK
6
CONTINUOUS
10
72.2232
20
-83.2632
11
72.2456
21
-83.2449
0
LINE
8
BLACK
6
CONTINUOUS
10
72.2456
20
-83.2449
11
72.2711
21
-83.2312
0
LINE
8
BLACK
6
CONTINUOUS
10
72.2711
20
-83.2312
11
72.2987
21
-83.2228
0
LINE
8
BLACK
6
CONTINUOUS
10
72.2987
20
-83.2228
11
72.3275
21
-83.22
0
LINE
8
BLACK
6
CONTINUOUS
10
72.3275
20
-83.22
11
72.6725
21
-83.22
0
LINE
8
BLACK
6
CONTINUOUS
10
72.6725
20
-83.22
11
72.7013
21
-83.2228
0
LINE
8
BLACK
6
CONTINUOUS
10
67.9013
20
-83.2228
11
67.929
21
-83.2312
0
LINE
8
BLACK
6
CONTINUOUS
10
67.929
20
-83.2312
11
67.9545
21
-83.2449
0
LINE
8
BLACK
6
CONTINUOUS
10
67.9545
20
-83.2449
11
67.9768
21
-83.2632
0
LINE
8
BLACK
6
CONTINUOUS
10
67.9768
20
-83.2632
11
67.9952
21
-83.2856
0
LINE
8
BLACK
6
CONTINUOUS
10
67.9952
20
-83.2856
11
68.0088
21
-83.3111
0
LINE
8
BLACK
6
CONTINUOUS
10
68.0088
20
-83.3111
11
68.0172
21
-83.3387
0
LINE
8
BLACK
6
CONTINUOUS
10
68.0172
20
-83.3387
11
68.02
21
-83.3675
0
LINE
8
BLACK
6
CONTINUOUS
10
68.02
20
-83.3675
11
68.02
21
-83.6625
0
LINE
8
BLACK
6
CONTINUOUS
10
68.02
20
-83.6625
11
68.0172
21
-83.6913
0
LINE
8
BLACK
6
CONTINUOUS
10
68.0172
20
-83.6913
11
68.0088
21
-83.7189
0
LINE
8
BLACK
6
CONTINUOUS
10
68.0088
20
-83.7189
11
67.9952
21
-83.7444
0
LINE
8
BLACK
6
CONTINUOUS
10
67.9952
20
-83.7444
11
67.9768
21
-83.7668
0
LINE
8
BLACK
6
CONTINUOUS
10
67.9768
20
-83.7668
11
67.9545
21
-83.7851
0
LINE
8
BLACK
6
CONTINUOUS
10
67.9545
20
-83.7851
11
67.929
21
-83.7988
0
LINE
8
BLACK
6
CONTINUOUS
10
67.929
20
-83.7988
11
67.9013
21
-83.8072
0
LINE
8
BLACK
6
CONTINUOUS
10
67.9013
20
-83.8072
11
67.8725
21
-83.81
0
LINE
8
BLACK
6
CONTINUOUS
10
67.8725
20
-83.81
11
67.5275
21
-83.81
0
LINE
8
BLACK
6
CONTINUOUS
10
67.5275
20
-83.81
11
67.4987
21
-83.8072
0
LINE
8
BLACK
6
CONTINUOUS
10
67.4987
20
-83.8072
11
67.4711
21
-83.7988
0
LINE
8
BLACK
6
CONTINUOUS
10
67.4711
20
-83.7988
11
67.4456
21
-83.7851
0
LINE
8
BLACK
6
CONTINUOUS
10
67.4456
20
-83.7851
11
67.4232
21
-83.7668
0
LINE
8
BLACK
6
CONTINUOUS
10
67.4232
20
-83.7668
11
67.4049
21
-83.7444
0
LINE
8
BLACK
6
CONTINUOUS
10
67.4049
20
-83.7444
11
67.3912
21
-83.7189
0
LINE
8
BLACK
6
CONTINUOUS
10
67.3912
20
-83.7189
11
67.3829
21
-83.6913
0
LINE
8
BLACK
6
CONTINUOUS
10
67.3829
20
-83.6913
11
67.38
21
-83.6625
0
LINE
8
BLACK
6
CONTINUOUS
10
67.38
20
-83.6625
11
67.38
21
-83.3675
0
LINE
8
BLACK
6
CONTINUOUS
10
67.38
20
-83.3675
11
67.3829
21
-83.3387
0
LINE
8
BLACK
6
CONTINUOUS
10
67.3829
20
-83.3387
11
67.3912
21
-83.3111
0
LINE
8
BLACK
6
CONTINUOUS
10
67.3912
20
-83.3111
11
67.4049
21
-83.2856
0
LINE
8
BLACK
6
CONTINUOUS
10
67.4049
20
-83.2856
11
67.4232
21
-83.2632
0
LINE
8
BLACK
6
CONTINUOUS
10
67.4232
20
-83.2632
11
67.4456
21
-83.2449
0
LINE
8
BLACK
6
CONTINUOUS
10
67.4456
20
-83.2449
11
67.4711
21
-83.2312
0
LINE
8
BLACK
6
CONTINUOUS
10
67.4711
20
-83.2312
11
67.4987
21
-83.2228
0
LINE
8
BLACK
6
CONTINUOUS
10
67.4987
20
-83.2228
11
67.5275
21
-83.22
0
LINE
8
BLACK
6
CONTINUOUS
10
67.5275
20
-83.22
11
67.8725
21
-83.22
0
LINE
8
BLACK
6
CONTINUOUS
10
67.8725
20
-83.22
11
67.9013
21
-83.2228
0
LINE
8
BLACK
6
CONTINUOUS
10
61.6613
20
-80.1828
11
61.6889
21
-80.1912
0
LINE
8
BLACK
6
CONTINUOUS
10
61.6889
20
-80.1912
11
61.7144
21
-80.2049
0
LINE
8
BLACK
6
CONTINUOUS
10
61.7144
20
-80.2049
11
61.7368
21
-80.2232
0
LINE
8
BLACK
6
CONTINUOUS
10
61.7368
20
-80.2232
11
61.7551
21
-80.2456
0
LINE
8
BLACK
6
CONTINUOUS
10
61.7551
20
-80.2456
11
61.7688
21
-80.2711
0
LINE
8
BLACK
6
CONTINUOUS
10
61.7688
20
-80.2711
11
61.7772
21
-80.2987
0
LINE
8
BLACK
6
CONTINUOUS
10
61.7772
20
-80.2987
11
61.78
21
-80.3275
0
LINE
8
BLACK
6
CONTINUOUS
10
61.78
20
-80.3275
11
61.78
21
-80.6725
0
LINE
8
BLACK
6
CONTINUOUS
10
61.78
20
-80.6725
11
61.7772
21
-80.7013
0
LINE
8
BLACK
6
CONTINUOUS
10
61.7772
20
-80.7013
11
61.7688
21
-80.7289
0
LINE
8
BLACK
6
CONTINUOUS
10
61.7688
20
-80.7289
11
61.7551
21
-80.7544
0
LINE
8
BLACK
6
CONTINUOUS
10
61.7551
20
-80.7544
11
61.7368
21
-80.7768
0
LINE
8
BLACK
6
CONTINUOUS
10
61.7368
20
-80.7768
11
61.7144
21
-80.7951
0
LINE
8
BLACK
6
CONTINUOUS
10
61.7144
20
-80.7951
11
61.6889
21
-80.8088
0
LINE
8
BLACK
6
CONTINUOUS
10
61.6889
20
-80.8088
11
61.6613
21
-80.8172
0
LINE
8
BLACK
6
CONTINUOUS
10
61.6613
20
-80.8172
11
61.6325
21
-80.82
0
LINE
8
BLACK
6
CONTINUOUS
10
61.6325
20
-80.82
11
61.3375
21
-80.82
0
LINE
8
BLACK
6
CONTINUOUS
10
61.3375
20
-80.82
11
61.3087
21
-80.8172
0
LINE
8
BLACK
6
CONTINUOUS
10
61.3087
20
-80.8172
11
61.2811
21
-80.8088
0
LINE
8
BLACK
6
CONTINUOUS
10
61.2811
20
-80.8088
11
61.2556
21
-80.7951
0
LINE
8
BLACK
6
CONTINUOUS
10
61.2556
20
-80.7951
11
61.2332
21
-80.7768
0
LINE
8
BLACK
6
CONTINUOUS
10
61.2332
20
-80.7768
11
61.2149
21
-80.7544
0
LINE
8
BLACK
6
CONTINUOUS
10
61.2149
20
-80.7544
11
61.2012
21
-80.7289
0
LINE
8
BLACK
6
CONTINUOUS
10
61.2012
20
-80.7289
11
61.1928
21
-80.7013
0
LINE
8
BLACK
6
CONTINUOUS
10
61.1928
20
-80.7013
11
61.19
21
-80.6725
0
LINE
8
BLACK
6
CONTINUOUS
10
61.19
20
-80.6725
11
61.19
21
-80.3275
0
LINE
8
BLACK
6
CONTINUOUS
10
61.19
20
-80.3275
11
61.1928
21
-80.2987
0
LINE
8
BLACK
6
CONTINUOUS
10
61.1928
20
-80.2987
11
61.2012
21
-80.2711
0
LINE
8
BLACK
6
CONTINUOUS
10
61.2012
20
-80.2711
11
61.2149
21
-80.2456
0
LINE
8
BLACK
6
CONTINUOUS
10
61.2149
20
-80.2456
11
61.2332
21
-80.2232
0
LINE
8
BLACK
6
CONTINUOUS
10
61.2332
20
-80.2232
11
61.2556
21
-80.2049
0
LINE
8
BLACK
6
CONTINUOUS
10
61.2556
20
-80.2049
11
61.2811
21
-80.1912
0
LINE
8
BLACK
6
CONTINUOUS
10
61.2811
20
-80.1912
11
61.3087
21
-80.1828
0
LINE
8
BLACK
6
CONTINUOUS
10
61.3087
20
-80.1828
11
61.3375
21
-80.18
0
LINE
8
BLACK
6
CONTINUOUS
10
61.3375
20
-80.18
11
61.6325
21
-80.18
0
LINE
8
BLACK
6
CONTINUOUS
10
61.6325
20
-80.18
11
61.6613
21
-80.1828
0
LINE
8
BLACK
6
CONTINUOUS
10
60.6913
20
-80.1828
11
60.7189
21
-80.1912
0
LINE
8
BLACK
6
CONTINUOUS
10
60.7189
20
-80.1912
11
60.7444
21
-80.2049
0
LINE
8
BLACK
6
CONTINUOUS
10
60.7444
20
-80.2049
11
60.7668
21
-80.2232
0
LINE
8
BLACK
6
CONTINUOUS
10
60.7668
20
-80.2232
11
60.7851
21
-80.2456
0
LINE
8
BLACK
6
CONTINUOUS
10
60.7851
20
-80.2456
11
60.7988
21
-80.2711
0
LINE
8
BLACK
6
CONTINUOUS
10
60.7988
20
-80.2711
11
60.8072
21
-80.2987
0
LINE
8
BLACK
6
CONTINUOUS
10
60.8072
20
-80.2987
11
60.81
21
-80.3275
0
LINE
8
BLACK
6
CONTINUOUS
10
60.81
20
-80.3275
11
60.81
21
-80.6725
0
LINE
8
BLACK
6
CONTINUOUS
10
60.81
20
-80.6725
11
60.8072
21
-80.7013
0
LINE
8
BLACK
6
CONTINUOUS
10
60.8072
20
-80.7013
11
60.7988
21
-80.7289
0
LINE
8
BLACK
6
CONTINUOUS
10
60.7988
20
-80.7289
11
60.7851
21
-80.7544
0
LINE
8
BLACK
6
CONTINUOUS
10
60.7851
20
-80.7544
11
60.7668
21
-80.7768
0
LINE
8
BLACK
6
CONTINUOUS
10
60.7668
20
-80.7768
11
60.7444
21
-80.7951
0
LINE
8
BLACK
6
CONTINUOUS
10
60.7444
20
-80.7951
11
60.7189
21
-80.8088
0
LINE
8
BLACK
6
CONTINUOUS
10
60.7189
20
-80.8088
11
60.6913
21
-80.8172
0
LINE
8
BLACK
6
CONTINUOUS
10
60.6913
20
-80.8172
11
60.6625
21
-80.82
0
LINE
8
BLACK
6
CONTINUOUS
10
60.6625
20
-80.82
11
60.3675
21
-80.82
0
LINE
8
BLACK
6
CONTINUOUS
10
60.3675
20
-80.82
11
60.3387
21
-80.8172
0
LINE
8
BLACK
6
CONTINUOUS
10
60.3387
20
-80.8172
11
60.3111
21
-80.8088
0
LINE
8
BLACK
6
CONTINUOUS
10
60.3111
20
-80.8088
11
60.2856
21
-80.7951
0
LINE
8
BLACK
6
CONTINUOUS
10
60.2856
20
-80.7951
11
60.2632
21
-80.7768
0
LINE
8
BLACK
6
CONTINUOUS
10
60.2632
20
-80.7768
11
60.2449
21
-80.7544
0
LINE
8
BLACK
6
CONTINUOUS
10
60.2449
20
-80.7544
11
60.2312
21
-80.7289
0
LINE
8
BLACK
6
CONTINUOUS
10
60.2312
20
-80.7289
11
60.2228
21
-80.7013
0
LINE
8
BLACK
6
CONTINUOUS
10
60.2228
20
-80.7013
11
60.22
21
-80.6725
0
LINE
8
BLACK
6
CONTINUOUS
10
60.22
20
-80.6725
11
60.22
21
-80.3275
0
LINE
8
BLACK
6
CONTINUOUS
10
60.22
20
-80.3275
11
60.2228
21
-80.2987
0
LINE
8
BLACK
6
CONTINUOUS
10
60.2228
20
-80.2987
11
60.2312
21
-80.2711
0
LINE
8
BLACK
6
CONTINUOUS
10
60.2312
20
-80.2711
11
60.2449
21
-80.2456
0
LINE
8
BLACK
6
CONTINUOUS
10
60.2449
20
-80.2456
11
60.2632
21
-80.2232
0
LINE
8
BLACK
6
CONTINUOUS
10
60.2632
20
-80.2232
11
60.2856
21
-80.2049
0
LINE
8
BLACK
6
CONTINUOUS
10
60.2856
20
-80.2049
11
60.3111
21
-80.1912
0
LINE
8
BLACK
6
CONTINUOUS
10
60.3111
20
-80.1912
11
60.3387
21
-80.1828
0
LINE
8
BLACK
6
CONTINUOUS
10
60.3387
20
-80.1828
11
60.3675
21
-80.18
0
LINE
8
BLACK
6
CONTINUOUS
10
60.3675
20
-80.18
11
60.6625
21
-80.18
0
LINE
8
BLACK
6
CONTINUOUS
10
60.6625
20
-80.18
11
60.6913
21
-80.1828
0
LINE
8
BLACK
6
CONTINUOUS
10
76.6613
20
-80.1828
11
76.689
21
-80.1912
0
LINE
8
BLACK
6
CONTINUOUS
10
76.689
20
-80.1912
11
76.7145
21
-80.2049
0
LINE
8
BLACK
6
CONTINUOUS
10
76.7145
20
-80.2049
11
76.7368
21
-80.2232
0
LINE
8
BLACK
6
CONTINUOUS
10
76.7368
20
-80.2232
11
76.7552
21
-80.2456
0
LINE
8
BLACK
6
CONTINUOUS
10
76.7552
20
-80.2456
11
76.7688
21
-80.2711
0
LINE
8
BLACK
6
CONTINUOUS
10
76.7688
20
-80.2711
11
76.7772
21
-80.2987
0
LINE
8
BLACK
6
CONTINUOUS
10
76.7772
20
-80.2987
11
76.78
21
-80.3275
0
LINE
8
BLACK
6
CONTINUOUS
10
76.78
20
-80.3275
11
76.78
21
-80.6725
0
LINE
8
BLACK
6
CONTINUOUS
10
76.78
20
-80.6725
11
76.7772
21
-80.7013
0
LINE
8
BLACK
6
CONTINUOUS
10
76.7772
20
-80.7013
11
76.7688
21
-80.7289
0
LINE
8
BLACK
6
CONTINUOUS
10
76.7688
20
-80.7289
11
76.7552
21
-80.7544
0
LINE
8
BLACK
6
CONTINUOUS
10
76.7552
20
-80.7544
11
76.7368
21
-80.7768
0
LINE
8
BLACK
6
CONTINUOUS
10
76.7368
20
-80.7768
11
76.7145
21
-80.7951
0
LINE
8
BLACK
6
CONTINUOUS
10
76.7145
20
-80.7951
11
76.689
21
-80.8088
0
LINE
8
BLACK
6
CONTINUOUS
10
76.689
20
-80.8088
11
76.6613
21
-80.8172
0
LINE
8
BLACK
6
CONTINUOUS
10
76.6613
20
-80.8172
11
76.6325
21
-80.82
0
LINE
8
BLACK
6
CONTINUOUS
10
76.6325
20
-80.82
11
76.3375
21
-80.82
0
LINE
8
BLACK
6
CONTINUOUS
10
76.3375
20
-80.82
11
76.3087
21
-80.8172
0
LINE
8
BLACK
6
CONTINUOUS
10
76.3087
20
-80.8172
11
76.2811
21
-80.8088
0
LINE
8
BLACK
6
CONTINUOUS
10
76.2811
20
-80.8088
11
76.2556
21
-80.7951
0
LINE
8
BLACK
6
CONTINUOUS
10
76.2556
20
-80.7951
11
76.2332
21
-80.7768
0
LINE
8
BLACK
6
CONTINUOUS
10
76.2332
20
-80.7768
11
76.2149
21
-80.7544
0
LINE
8
BLACK
6
CONTINUOUS
10
76.2149
20
-80.7544
11
76.2012
21
-80.7289
0
LINE
8
BLACK
6
CONTINUOUS
10
76.2012
20
-80.7289
11
76.1929
21
-80.7013
0
LINE
8
BLACK
6
CONTINUOUS
10
76.1929
20
-80.7013
11
76.19
21
-80.6725
0
LINE
8
BLACK
6
CONTINUOUS
10
76.19
20
-80.6725
11
76.19
21
-80.3275
0
LINE
8
BLACK
6
CONTINUOUS
10
76.19
20
-80.3275
11
76.1929
21
-80.2987
0
LINE
8
BLACK
6
CONTINUOUS
10
76.1929
20
-80.2987
11
76.2012
21
-80.2711
0
LINE
8
BLACK
6
CONTINUOUS
10
76.2012
20
-80.2711
11
76.2149
21
-80.2456
0
LINE
8
BLACK
6
CONTINUOUS
10
76.2149
20
-80.2456
11
76.2332
21
-80.2232
0
LINE
8
BLACK
6
CONTINUOUS
10
76.2332
20
-80.2232
11
76.2556
21
-80.2049
0
LINE
8
BLACK
6
CONTINUOUS
10
76.2556
20
-80.2049
11
76.2811
21
-80.1912
0
LINE
8
BLACK
6
CONTINUOUS
10
76.2811
20
-80.1912
11
76.3087
21
-80.1828
0
LINE
8
BLACK
6
CONTINUOUS
10
76.3087
20
-80.1828
11
76.3375
21
-80.18
0
LINE
8
BLACK
6
CONTINUOUS
10
76.3375
20
-80.18
11
76.6325
21
-80.18
0
LINE
8
BLACK
6
CONTINUOUS
10
76.6325
20
-80.18
11
76.6613
21
-80.1828
0
LINE
8
BLACK
6
CONTINUOUS
10
75.6913
20
-80.1828
11
75.719
21
-80.1912
0
LINE
8
BLACK
6
CONTINUOUS
10
75.719
20
-80.1912
11
75.7445
21
-80.2049
0
LINE
8
BLACK
6
CONTINUOUS
10
75.7445
20
-80.2049
11
75.7668
21
-80.2232
0
LINE
8
BLACK
6
CONTINUOUS
10
75.7668
20
-80.2232
11
75.7852
21
-80.2456
0
LINE
8
BLACK
6
CONTINUOUS
10
75.7852
20
-80.2456
11
75.7988
21
-80.2711
0
LINE
8
BLACK
6
CONTINUOUS
10
75.7988
20
-80.2711
11
75.8072
21
-80.2987
0
LINE
8
BLACK
6
CONTINUOUS
10
75.8072
20
-80.2987
11
75.81
21
-80.3275
0
LINE
8
BLACK
6
CONTINUOUS
10
75.81
20
-80.3275
11
75.81
21
-80.6725
0
LINE
8
BLACK
6
CONTINUOUS
10
75.81
20
-80.6725
11
75.8072
21
-80.7013
0
LINE
8
BLACK
6
CONTINUOUS
10
75.8072
20
-80.7013
11
75.7988
21
-80.7289
0
LINE
8
BLACK
6
CONTINUOUS
10
75.7988
20
-80.7289
11
75.7852
21
-80.7544
0
LINE
8
BLACK
6
CONTINUOUS
10
75.7852
20
-80.7544
11
75.7668
21
-80.7768
0
LINE
8
BLACK
6
CONTINUOUS
10
75.7668
20
-80.7768
11
75.7445
21
-80.7951
0
LINE
8
BLACK
6
CONTINUOUS
10
75.7445
20
-80.7951
11
75.719
21
-80.8088
0
LINE
8
BLACK
6
CONTINUOUS
10
75.719
20
-80.8088
11
75.6913
21
-80.8172
0
LINE
8
BLACK
6
CONTINUOUS
10
75.6913
20
-80.8172
11
75.6625
21
-80.82
0
LINE
8
BLACK
6
CONTINUOUS
10
75.6625
20
-80.82
11
75.3675
21
-80.82
0
LINE
8
BLACK
6
CONTINUOUS
10
75.3675
20
-80.82
11
75.3387
21
-80.8172
0
LINE
8
BLACK
6
CONTINUOUS
10
75.3387
20
-80.8172
11
75.3111
21
-80.8088
0
LINE
8
BLACK
6
CONTINUOUS
10
75.3111
20
-80.8088
11
75.2856
21
-80.7951
0
LINE
8
BLACK
6
CONTINUOUS
10
75.2856
20
-80.7951
11
75.2632
21
-80.7768
0
LINE
8
BLACK
6
CONTINUOUS
10
75.2632
20
-80.7768
11
75.2449
21
-80.7544
0
LINE
8
BLACK
6
CONTINUOUS
10
75.2449
20
-80.7544
11
75.2312
21
-80.7289
0
LINE
8
BLACK
6
CONTINUOUS
10
75.2312
20
-80.7289
11
75.2229
21
-80.7013
0
LINE
8
BLACK
6
CONTINUOUS
10
75.2229
20
-80.7013
11
75.22
21
-80.6725
0
LINE
8
BLACK
6
CONTINUOUS
10
75.22
20
-80.6725
11
75.22
21
-80.3275
0
LINE
8
BLACK
6
CONTINUOUS
10
75.22
20
-80.3275
11
75.2229
21
-80.2987
0
LINE
8
BLACK
6
CONTINUOUS
10
75.2229
20
-80.2987
11
75.2312
21
-80.2711
0
LINE
8
BLACK
6
CONTINUOUS
10
75.2312
20
-80.2711
11
75.2449
21
-80.2456
0
LINE
8
BLACK
6
CONTINUOUS
10
75.2449
20
-80.2456
11
75.2632
21
-80.2232
0
LINE
8
BLACK
6
CONTINUOUS
10
75.2632
20
-80.2232
11
75.2856
21
-80.2049
0
LINE
8
BLACK
6
CONTINUOUS
10
75.2856
20
-80.2049
11
75.3111
21
-80.1912
0
LINE
8
BLACK
6
CONTINUOUS
10
75.3111
20
-80.1912
11
75.3387
21
-80.1828
0
LINE
8
BLACK
6
CONTINUOUS
10
75.3387
20
-80.1828
11
75.3675
21
-80.18
0
LINE
8
BLACK
6
CONTINUOUS
10
75.3675
20
-80.18
11
75.6625
21
-80.18
0
LINE
8
BLACK
6
CONTINUOUS
10
75.6625
20
-80.18
11
75.6913
21
-80.1828
0
LINE
8
BLACK
6
CONTINUOUS
10
71.6613
20
-80.1828
11
71.689
21
-80.1912
0
LINE
8
BLACK
6
CONTINUOUS
10
71.689
20
-80.1912
11
71.7145
21
-80.2049
0
LINE
8
BLACK
6
CONTINUOUS
10
71.7145
20
-80.2049
11
71.7368
21
-80.2232
0
LINE
8
BLACK
6
CONTINUOUS
10
71.7368
20
-80.2232
11
71.7552
21
-80.2456
0
LINE
8
BLACK
6
CONTINUOUS
10
71.7552
20
-80.2456
11
71.7688
21
-80.2711
0
LINE
8
BLACK
6
CONTINUOUS
10
71.7688
20
-80.2711
11
71.7772
21
-80.2987
0
LINE
8
BLACK
6
CONTINUOUS
10
71.7772
20
-80.2987
11
71.78
21
-80.3275
0
LINE
8
BLACK
6
CONTINUOUS
10
71.78
20
-80.3275
11
71.78
21
-80.6725
0
LINE
8
BLACK
6
CONTINUOUS
10
71.78
20
-80.6725
11
71.7772
21
-80.7013
0
LINE
8
BLACK
6
CONTINUOUS
10
71.7772
20
-80.7013
11
71.7688
21
-80.7289
0
LINE
8
BLACK
6
CONTINUOUS
10
71.7688
20
-80.7289
11
71.7552
21
-80.7544
0
LINE
8
BLACK
6
CONTINUOUS
10
71.7552
20
-80.7544
11
71.7368
21
-80.7768
0
LINE
8
BLACK
6
CONTINUOUS
10
71.7368
20
-80.7768
11
71.7145
21
-80.7951
0
LINE
8
BLACK
6
CONTINUOUS
10
71.7145
20
-80.7951
11
71.689
21
-80.8088
0
LINE
8
BLACK
6
CONTINUOUS
10
71.689
20
-80.8088
11
71.6613
21
-80.8172
0
LINE
8
BLACK
6
CONTINUOUS
10
71.6613
20
-80.8172
11
71.6325
21
-80.82
0
LINE
8
BLACK
6
CONTINUOUS
10
71.6325
20
-80.82
11
71.3375
21
-80.82
0
LINE
8
BLACK
6
CONTINUOUS
10
71.3375
20
-80.82
11
71.3087
21
-80.8172
0
LINE
8
BLACK
6
CONTINUOUS
10
71.3087
20
-80.8172
11
71.2811
21
-80.8088
0
LINE
8
BLACK
6
CONTINUOUS
10
71.2811
20
-80.8088
11
71.2556
21
-80.7951
0
LINE
8
BLACK
6
CONTINUOUS
10
71.2556
20
-80.7951
11
71.2332
21
-80.7768
0
LINE
8
BLACK
6
CONTINUOUS
10
71.2332
20
-80.7768
11
71.2149
21
-80.7544
0
LINE
8
BLACK
6
CONTINUOUS
10
71.2149
20
-80.7544
11
71.2012
21
-80.7289
0
LINE
8
BLACK
6
CONTINUOUS
10
71.2012
20
-80.7289
11
71.1929
21
-80.7013
0
LINE
8
BLACK
6
CONTINUOUS
10
71.1929
20
-80.7013
11
71.19
21
-80.6725
0
LINE
8
BLACK
6
CONTINUOUS
10
71.19
20
-80.6725
11
71.19
21
-80.3275
0
LINE
8
BLACK
6
CONTINUOUS
10
71.19
20
-80.3275
11
71.1929
21
-80.2987
0
LINE
8
BLACK
6
CONTINUOUS
10
71.1929
20
-80.2987
11
71.2012
21
-80.2711
0
LINE
8
BLACK
6
CONTINUOUS
10
71.2012
20
-80.2711
11
71.2149
21
-80.2456
0
LINE
8
BLACK
6
CONTINUOUS
10
71.2149
20
-80.2456
11
71.2332
21
-80.2232
0
LINE
8
BLACK
6
CONTINUOUS
10
71.2332
20
-80.2232
11
71.2556
21
-80.2049
0
LINE
8
BLACK
6
CONTINUOUS
10
71.2556
20
-80.2049
11
71.2811
21
-80.1912
0
LINE
8
BLACK
6
CONTINUOUS
10
71.2811
20
-80.1912
11
71.3087
21
-80.1828
0
LINE
8
BLACK
6
CONTINUOUS
10
71.3087
20
-80.1828
11
71.3375
21
-80.18
0
LINE
8
BLACK
6
CONTINUOUS
10
71.3375
20
-80.18
11
71.6325
21
-80.18
0
LINE
8
BLACK
6
CONTINUOUS
10
71.6325
20
-80.18
11
71.6613
21
-80.1828
0
LINE
8
BLACK
6
CONTINUOUS
10
70.6913
20
-80.1828
11
70.719
21
-80.1912
0
LINE
8
BLACK
6
CONTINUOUS
10
70.719
20
-80.1912
11
70.7445
21
-80.2049
0
LINE
8
BLACK
6
CONTINUOUS
10
70.7445
20
-80.2049
11
70.7668
21
-80.2232
0
LINE
8
BLACK
6
CONTINUOUS
10
70.7668
20
-80.2232
11
70.7852
21
-80.2456
0
LINE
8
BLACK
6
CONTINUOUS
10
70.7852
20
-80.2456
11
70.7988
21
-80.2711
0
LINE
8
BLACK
6
CONTINUOUS
10
70.7988
20
-80.2711
11
70.8072
21
-80.2987
0
LINE
8
BLACK
6
CONTINUOUS
10
70.8072
20
-80.2987
11
70.81
21
-80.3275
0
LINE
8
BLACK
6
CONTINUOUS
10
70.81
20
-80.3275
11
70.81
21
-80.6725
0
LINE
8
BLACK
6
CONTINUOUS
10
70.81
20
-80.6725
11
70.8072
21
-80.7013
0
LINE
8
BLACK
6
CONTINUOUS
10
70.8072
20
-80.7013
11
70.7988
21
-80.7289
0
LINE
8
BLACK
6
CONTINUOUS
10
70.7988
20
-80.7289
11
70.7852
21
-80.7544
0
LINE
8
BLACK
6
CONTINUOUS
10
70.7852
20
-80.7544
11
70.7668
21
-80.7768
0
LINE
8
BLACK
6
CONTINUOUS
10
70.7668
20
-80.7768
11
70.7445
21
-80.7951
0
LINE
8
BLACK
6
CONTINUOUS
10
70.7445
20
-80.7951
11
70.719
21
-80.8088
0
LINE
8
BLACK
6
CONTINUOUS
10
70.719
20
-80.8088
11
70.6913
21
-80.8172
0
LINE
8
BLACK
6
CONTINUOUS
10
70.6913
20
-80.8172
11
70.6625
21
-80.82
0
LINE
8
BLACK
6
CONTINUOUS
10
70.6625
20
-80.82
11
70.3675
21
-80.82
0
LINE
8
BLACK
6
CONTINUOUS
10
70.3675
20
-80.82
11
70.3387
21
-80.8172
0
LINE
8
BLACK
6
CONTINUOUS
10
70.3387
20
-80.8172
11
70.3111
21
-80.8088
0
LINE
8
BLACK
6
CONTINUOUS
10
70.3111
20
-80.8088
11
70.2856
21
-80.7951
0
LINE
8
BLACK
6
CONTINUOUS
10
70.2856
20
-80.7951
11
70.2632
21
-80.7768
0
LINE
8
BLACK
6
CONTINUOUS
10
70.2632
20
-80.7768
11
70.2449
21
-80.7544
0
LINE
8
BLACK
6
CONTINUOUS
10
70.2449
20
-80.7544
11
70.2312
21
-80.7289
0
LINE
8
BLACK
6
CONTINUOUS
10
70.2312
20
-80.7289
11
70.2229
21
-80.7013
0
LINE
8
BLACK
6
CONTINUOUS
10
70.2229
20
-80.7013
11
70.22
21
-80.6725
0
LINE
8
BLACK
6
CONTINUOUS
10
70.22
20
-80.6725
11
70.22
21
-80.3275
0
LINE
8
BLACK
6
CONTINUOUS
10
70.22
20
-80.3275
11
70.2229
21
-80.2987
0
LINE
8
BLACK
6
CONTINUOUS
10
70.2229
20
-80.2987
11
70.2312
21
-80.2711
0
LINE
8
BLACK
6
CONTINUOUS
10
70.2312
20
-80.2711
11
70.2449
21
-80.2456
0
LINE
8
BLACK
6
CONTINUOUS
10
70.2449
20
-80.2456
11
70.2632
21
-80.2232
0
LINE
8
BLACK
6
CONTINUOUS
10
70.2632
20
-80.2232
11
70.2856
21
-80.2049
0
LINE
8
BLACK
6
CONTINUOUS
10
70.2856
20
-80.2049
11
70.3111
21
-80.1912
0
LINE
8
BLACK
6
CONTINUOUS
10
70.3111
20
-80.1912
11
70.3387
21
-80.1828
0
LINE
8
BLACK
6
CONTINUOUS
10
70.3387
20
-80.1828
11
70.3675
21
-80.18
0
LINE
8
BLACK
6
CONTINUOUS
10
70.3675
20
-80.18
11
70.6625
21
-80.18
0
LINE
8
BLACK
6
CONTINUOUS
10
70.6625
20
-80.18
11
70.6913
21
-80.1828
0
LINE
8
BLACK
6
CONTINUOUS
10
65.6913
20
-80.1828
11
65.719
21
-80.1912
0
LINE
8
BLACK
6
CONTINUOUS
10
65.719
20
-80.1912
11
65.7445
21
-80.2049
0
LINE
8
BLACK
6
CONTINUOUS
10
65.7445
20
-80.2049
11
65.7668
21
-80.2232
0
LINE
8
BLACK
6
CONTINUOUS
10
65.7668
20
-80.2232
11
65.7852
21
-80.2456
0
LINE
8
BLACK
6
CONTINUOUS
10
65.7852
20
-80.2456
11
65.7988
21
-80.2711
0
LINE
8
BLACK
6
CONTINUOUS
10
65.7988
20
-80.2711
11
65.8072
21
-80.2987
0
LINE
8
BLACK
6
CONTINUOUS
10
65.8072
20
-80.2987
11
65.81
21
-80.3275
0
LINE
8
BLACK
6
CONTINUOUS
10
65.81
20
-80.3275
11
65.81
21
-80.6725
0
LINE
8
BLACK
6
CONTINUOUS
10
65.81
20
-80.6725
11
65.8072
21
-80.7013
0
LINE
8
BLACK
6
CONTINUOUS
10
65.8072
20
-80.7013
11
65.7988
21
-80.7289
0
LINE
8
BLACK
6
CONTINUOUS
10
65.7988
20
-80.7289
11
65.7852
21
-80.7544
0
LINE
8
BLACK
6
CONTINUOUS
10
65.7852
20
-80.7544
11
65.7668
21
-80.7768
0
LINE
8
BLACK
6
CONTINUOUS
10
65.7668
20
-80.7768
11
65.7445
21
-80.7951
0
LINE
8
BLACK
6
CONTINUOUS
10
65.7445
20
-80.7951
11
65.719
21
-80.8088
0
LINE
8
BLACK
6
CONTINUOUS
10
65.719
20
-80.8088
11
65.6913
21
-80.8172
0
LINE
8
BLACK
6
CONTINUOUS
10
65.6913
20
-80.8172
11
65.6625
21
-80.82
0
LINE
8
BLACK
6
CONTINUOUS
10
65.6625
20
-80.82
11
65.3675
21
-80.82
0
LINE
8
BLACK
6
CONTINUOUS
10
65.3675
20
-80.82
11
65.3387
21
-80.8172
0
LINE
8
BLACK
6
CONTINUOUS
10
65.3387
20
-80.8172
11
65.3111
21
-80.8088
0
LINE
8
BLACK
6
CONTINUOUS
10
65.3111
20
-80.8088
11
65.2856
21
-80.7951
0
LINE
8
BLACK
6
CONTINUOUS
10
65.2856
20
-80.7951
11
65.2632
21
-80.7768
0
LINE
8
BLACK
6
CONTINUOUS
10
65.2632
20
-80.7768
11
65.2449
21
-80.7544
0
LINE
8
BLACK
6
CONTINUOUS
10
65.2449
20
-80.7544
11
65.2312
21
-80.7289
0
LINE
8
BLACK
6
CONTINUOUS
10
65.2312
20
-80.7289
11
65.2229
21
-80.7013
0
LINE
8
BLACK
6
CONTINUOUS
10
65.2229
20
-80.7013
11
65.22
21
-80.6725
0
LINE
8
BLACK
6
CONTINUOUS
10
65.22
20
-80.6725
11
65.22
21
-80.3275
0
LINE
8
BLACK
6
CONTINUOUS
10
65.22
20
-80.3275
11
65.2229
21
-80.2987
0
LINE
8
BLACK
6
CONTINUOUS
10
65.2229
20
-80.2987
11
65.2312
21
-80.2711
0
LINE
8
BLACK
6
CONTINUOUS
10
65.2312
20
-80.2711
11
65.2449
21
-80.2456
0
LINE
8
BLACK
6
CONTINUOUS
10
65.2449
20
-80.2456
11
65.2632
21
-80.2232
0
LINE
8
BLACK
6
CONTINUOUS
10
65.2632
20
-80.2232
11
65.2856
21
-80.2049
0
LINE
8
BLACK
6
CONTINUOUS
10
65.2856
20
-80.2049
11
65.3111
21
-80.1912
0
LINE
8
BLACK
6
CONTINUOUS
10
65.3111
20
-80.1912
11
65.3387
21
-80.1828
0
LINE
8
BLACK
6
CONTINUOUS
10
65.3387
20
-80.1828
11
65.3675
21
-80.18
0
LINE
8
BLACK
6
CONTINUOUS
10
65.3675
20
-80.18
11
65.6625
21
-80.18
0
LINE
8
BLACK
6
CONTINUOUS
10
65.6625
20
-80.18
11
65.6913
21
-80.1828
0
LINE
8
BLACK
6
CONTINUOUS
10
66.6613
20
-80.1828
11
66.689
21
-80.1912
0
LINE
8
BLACK
6
CONTINUOUS
10
66.689
20
-80.1912
11
66.7145
21
-80.2049
0
LINE
8
BLACK
6
CONTINUOUS
10
66.7145
20
-80.2049
11
66.7368
21
-80.2232
0
LINE
8
BLACK
6
CONTINUOUS
10
66.7368
20
-80.2232
11
66.7552
21
-80.2456
0
LINE
8
BLACK
6
CONTINUOUS
10
66.7552
20
-80.2456
11
66.7688
21
-80.2711
0
LINE
8
BLACK
6
CONTINUOUS
10
66.7688
20
-80.2711
11
66.7772
21
-80.2987
0
LINE
8
BLACK
6
CONTINUOUS
10
66.7772
20
-80.2987
11
66.78
21
-80.3275
0
LINE
8
BLACK
6
CONTINUOUS
10
66.78
20
-80.3275
11
66.78
21
-80.6725
0
LINE
8
BLACK
6
CONTINUOUS
10
66.78
20
-80.6725
11
66.7772
21
-80.7013
0
LINE
8
BLACK
6
CONTINUOUS
10
66.7772
20
-80.7013
11
66.7688
21
-80.7289
0
LINE
8
BLACK
6
CONTINUOUS
10
66.7688
20
-80.7289
11
66.7552
21
-80.7544
0
LINE
8
BLACK
6
CONTINUOUS
10
66.7552
20
-80.7544
11
66.7368
21
-80.7768
0
LINE
8
BLACK
6
CONTINUOUS
10
66.7368
20
-80.7768
11
66.7145
21
-80.7951
0
LINE
8
BLACK
6
CONTINUOUS
10
66.7145
20
-80.7951
11
66.689
21
-80.8088
0
LINE
8
BLACK
6
CONTINUOUS
10
66.689
20
-80.8088
11
66.6613
21
-80.8172
0
LINE
8
BLACK
6
CONTINUOUS
10
66.6613
20
-80.8172
11
66.6325
21
-80.82
0
LINE
8
BLACK
6
CONTINUOUS
10
66.6325
20
-80.82
11
66.3375
21
-80.82
0
LINE
8
BLACK
6
CONTINUOUS
10
66.3375
20
-80.82
11
66.3087
21
-80.8172
0
LINE
8
BLACK
6
CONTINUOUS
10
66.3087
20
-80.8172
11
66.2811
21
-80.8088
0
LINE
8
BLACK
6
CONTINUOUS
10
66.2811
20
-80.8088
11
66.2556
21
-80.7951
0
LINE
8
BLACK
6
CONTINUOUS
10
66.2556
20
-80.7951
11
66.2332
21
-80.7768
0
LINE
8
BLACK
6
CONTINUOUS
10
66.2332
20
-80.7768
11
66.2149
21
-80.7544
0
LINE
8
BLACK
6
CONTINUOUS
10
66.2149
20
-80.7544
11
66.2012
21
-80.7289
0
LINE
8
BLACK
6
CONTINUOUS
10
66.2012
20
-80.7289
11
66.1929
21
-80.7013
0
LINE
8
BLACK
6
CONTINUOUS
10
66.1929
20
-80.7013
11
66.19
21
-80.6725
0
LINE
8
BLACK
6
CONTINUOUS
10
66.19
20
-80.6725
11
66.19
21
-80.3275
0
LINE
8
BLACK
6
CONTINUOUS
10
66.19
20
-80.3275
11
66.1929
21
-80.2987
0
LINE
8
BLACK
6
CONTINUOUS
10
66.1929
20
-80.2987
11
66.2012
21
-80.2711
0
LINE
8
BLACK
6
CONTINUOUS
10
66.2012
20
-80.2711
11
66.2149
21
-80.2456
0
LINE
8
BLACK
6
CONTINUOUS
10
66.2149
20
-80.2456
11
66.2332
21
-80.2232
0
LINE
8
BLACK
6
CONTINUOUS
10
66.2332
20
-80.2232
11
66.2556
21
-80.2049
0
LINE
8
BLACK
6
CONTINUOUS
10
66.2556
20
-80.2049
11
66.2811
21
-80.1912
0
LINE
8
BLACK
6
CONTINUOUS
10
66.2811
20
-80.1912
11
66.3087
21
-80.1828
0
LINE
8
BLACK
6
CONTINUOUS
10
66.3087
20
-80.1828
11
66.3375
21
-80.18
0
LINE
8
BLACK
6
CONTINUOUS
10
66.3375
20
-80.18
11
66.6325
21
-80.18
0
LINE
8
BLACK
6
CONTINUOUS
10
66.6325
20
-80.18
11
66.6613
21
-80.1828
0
LINE
8
BLACK
6
CONTINUOUS
10
51.6613
20
-80.1828
11
51.6889
21
-80.1912
0
LINE
8
BLACK
6
CONTINUOUS
10
51.6889
20
-80.1912
11
51.7144
21
-80.2049
0
LINE
8
BLACK
6
CONTINUOUS
10
51.7144
20
-80.2049
11
51.7368
21
-80.2232
0
LINE
8
BLACK
6
CONTINUOUS
10
51.7368
20
-80.2232
11
51.7551
21
-80.2456
0
LINE
8
BLACK
6
CONTINUOUS
10
51.7551
20
-80.2456
11
51.7688
21
-80.2711
0
LINE
8
BLACK
6
CONTINUOUS
10
51.7688
20
-80.2711
11
51.7772
21
-80.2987
0
LINE
8
BLACK
6
CONTINUOUS
10
51.7772
20
-80.2987
11
51.78
21
-80.3275
0
LINE
8
BLACK
6
CONTINUOUS
10
51.78
20
-80.3275
11
51.78
21
-80.6725
0
LINE
8
BLACK
6
CONTINUOUS
10
51.78
20
-80.6725
11
51.7772
21
-80.7013
0
LINE
8
BLACK
6
CONTINUOUS
10
51.7772
20
-80.7013
11
51.7688
21
-80.7289
0
LINE
8
BLACK
6
CONTINUOUS
10
51.7688
20
-80.7289
11
51.7551
21
-80.7544
0
LINE
8
BLACK
6
CONTINUOUS
10
51.7551
20
-80.7544
11
51.7368
21
-80.7768
0
LINE
8
BLACK
6
CONTINUOUS
10
51.7368
20
-80.7768
11
51.7144
21
-80.7951
0
LINE
8
BLACK
6
CONTINUOUS
10
51.7144
20
-80.7951
11
51.6889
21
-80.8088
0
LINE
8
BLACK
6
CONTINUOUS
10
51.6889
20
-80.8088
11
51.6613
21
-80.8172
0
LINE
8
BLACK
6
CONTINUOUS
10
51.6613
20
-80.8172
11
51.6325
21
-80.82
0
LINE
8
BLACK
6
CONTINUOUS
10
51.6325
20
-80.82
11
51.3375
21
-80.82
0
LINE
8
BLACK
6
CONTINUOUS
10
51.3375
20
-80.82
11
51.3087
21
-80.8172
0
LINE
8
BLACK
6
CONTINUOUS
10
51.3087
20
-80.8172
11
51.2811
21
-80.8088
0
LINE
8
BLACK
6
CONTINUOUS
10
51.2811
20
-80.8088
11
51.2556
21
-80.7951
0
LINE
8
BLACK
6
CONTINUOUS
10
51.2556
20
-80.7951
11
51.2332
21
-80.7768
0
LINE
8
BLACK
6
CONTINUOUS
10
51.2332
20
-80.7768
11
51.2149
21
-80.7544
0
LINE
8
BLACK
6
CONTINUOUS
10
51.2149
20
-80.7544
11
51.2012
21
-80.7289
0
LINE
8
BLACK
6
CONTINUOUS
10
51.2012
20
-80.7289
11
51.1928
21
-80.7013
0
LINE
8
BLACK
6
CONTINUOUS
10
51.1928
20
-80.7013
11
51.19
21
-80.6725
0
LINE
8
BLACK
6
CONTINUOUS
10
51.19
20
-80.6725
11
51.19
21
-80.3275
0
LINE
8
BLACK
6
CONTINUOUS
10
51.19
20
-80.3275
11
51.1928
21
-80.2987
0
LINE
8
BLACK
6
CONTINUOUS
10
51.1928
20
-80.2987
11
51.2012
21
-80.2711
0
LINE
8
BLACK
6
CONTINUOUS
10
51.2012
20
-80.2711
11
51.2149
21
-80.2456
0
LINE
8
BLACK
6
CONTINUOUS
10
51.2149
20
-80.2456
11
51.2332
21
-80.2232
0
LINE
8
BLACK
6
CONTINUOUS
10
51.2332
20
-80.2232
11
51.2556
21
-80.2049
0
LINE
8
BLACK
6
CONTINUOUS
10
51.2556
20
-80.2049
11
51.2811
21
-80.1912
0
LINE
8
BLACK
6
CONTINUOUS
10
51.2811
20
-80.1912
11
51.3087
21
-80.1828
0
LINE
8
BLACK
6
CONTINUOUS
10
51.3087
20
-80.1828
11
51.3375
21
-80.18
0
LINE
8
BLACK
6
CONTINUOUS
10
51.3375
20
-80.18
11
51.6325
21
-80.18
0
LINE
8
BLACK
6
CONTINUOUS
10
51.6325
20
-80.18
11
51.6613
21
-80.1828
0
LINE
8
BLACK
6
CONTINUOUS
10
50.6913
20
-80.1828
11
50.7189
21
-80.1912
0
LINE
8
BLACK
6
CONTINUOUS
10
50.7189
20
-80.1912
11
50.7444
21
-80.2049
0
LINE
8
BLACK
6
CONTINUOUS
10
50.7444
20
-80.2049
11
50.7668
21
-80.2232
0
LINE
8
BLACK
6
CONTINUOUS
10
50.7668
20
-80.2232
11
50.7851
21
-80.2456
0
LINE
8
BLACK
6
CONTINUOUS
10
50.7851
20
-80.2456
11
50.7988
21
-80.2711
0
LINE
8
BLACK
6
CONTINUOUS
10
50.7988
20
-80.2711
11
50.8072
21
-80.2987
0
LINE
8
BLACK
6
CONTINUOUS
10
50.8072
20
-80.2987
11
50.81
21
-80.3275
0
LINE
8
BLACK
6
CONTINUOUS
10
50.81
20
-80.3275
11
50.81
21
-80.6725
0
LINE
8
BLACK
6
CONTINUOUS
10
50.81
20
-80.6725
11
50.8072
21
-80.7013
0
LINE
8
BLACK
6
CONTINUOUS
10
50.8072
20
-80.7013
11
50.7988
21
-80.7289
0
LINE
8
BLACK
6
CONTINUOUS
10
50.7988
20
-80.7289
11
50.7851
21
-80.7544
0
LINE
8
BLACK
6
CONTINUOUS
10
50.7851
20
-80.7544
11
50.7668
21
-80.7768
0
LINE
8
BLACK
6
CONTINUOUS
10
50.7668
20
-80.7768
11
50.7444
21
-80.7951
0
LINE
8
BLACK
6
CONTINUOUS
10
50.7444
20
-80.7951
11
50.7189
21
-80.8088
0
LINE
8
BLACK
6
CONTINUOUS
10
50.7189
20
-80.8088
11
50.6913
21
-80.8172
0
LINE
8
BLACK
6
CONTINUOUS
10
50.6913
20
-80.8172
11
50.6625
21
-80.82
0
LINE
8
BLACK
6
CONTINUOUS
10
50.6625
20
-80.82
11
50.3675
21
-80.82
0
LINE
8
BLACK
6
CONTINUOUS
10
50.3675
20
-80.82
11
50.3387
21
-80.8172
0
LINE
8
BLACK
6
CONTINUOUS
10
50.3387
20
-80.8172
11
50.3111
21
-80.8088
0
LINE
8
BLACK
6
CONTINUOUS
10
50.3111
20
-80.8088
11
50.2856
21
-80.7951
0
LINE
8
BLACK
6
CONTINUOUS
10
50.2856
20
-80.7951
11
50.2632
21
-80.7768
0
LINE
8
BLACK
6
CONTINUOUS
10
50.2632
20
-80.7768
11
50.2449
21
-80.7544
0
LINE
8
BLACK
6
CONTINUOUS
10
50.2449
20
-80.7544
11
50.2312
21
-80.7289
0
LINE
8
BLACK
6
CONTINUOUS
10
50.2312
20
-80.7289
11
50.2228
21
-80.7013
0
LINE
8
BLACK
6
CONTINUOUS
10
50.2228
20
-80.7013
11
50.22
21
-80.6725
0
LINE
8
BLACK
6
CONTINUOUS
10
50.22
20
-80.6725
11
50.22
21
-80.3275
0
LINE
8
BLACK
6
CONTINUOUS
10
50.22
20
-80.3275
11
50.2228
21
-80.2987
0
LINE
8
BLACK
6
CONTINUOUS
10
50.2228
20
-80.2987
11
50.2312
21
-80.2711
0
LINE
8
BLACK
6
CONTINUOUS
10
50.2312
20
-80.2711
11
50.2449
21
-80.2456
0
LINE
8
BLACK
6
CONTINUOUS
10
50.2449
20
-80.2456
11
50.2632
21
-80.2232
0
LINE
8
BLACK
6
CONTINUOUS
10
50.2632
20
-80.2232
11
50.2856
21
-80.2049
0
LINE
8
BLACK
6
CONTINUOUS
10
50.2856
20
-80.2049
11
50.3111
21
-80.1912
0
LINE
8
BLACK
6
CONTINUOUS
10
50.3111
20
-80.1912
11
50.3387
21
-80.1828
0
LINE
8
BLACK
6
CONTINUOUS
10
50.3387
20
-80.1828
11
50.3675
21
-80.18
0
LINE
8
BLACK
6
CONTINUOUS
10
50.3675
20
-80.18
11
50.6625
21
-80.18
0
LINE
8
BLACK
6
CONTINUOUS
10
50.6625
20
-80.18
11
50.6913
21
-80.1828
0
LINE
8
BLACK
6
CONTINUOUS
10
55.6913
20
-80.1828
11
55.7189
21
-80.1912
0
LINE
8
BLACK
6
CONTINUOUS
10
55.7189
20
-80.1912
11
55.7444
21
-80.2049
0
LINE
8
BLACK
6
CONTINUOUS
10
55.7444
20
-80.2049
11
55.7668
21
-80.2232
0
LINE
8
BLACK
6
CONTINUOUS
10
55.7668
20
-80.2232
11
55.7851
21
-80.2456
0
LINE
8
BLACK
6
CONTINUOUS
10
55.7851
20
-80.2456
11
55.7988
21
-80.2711
0
LINE
8
BLACK
6
CONTINUOUS
10
55.7988
20
-80.2711
11
55.8072
21
-80.2987
0
LINE
8
BLACK
6
CONTINUOUS
10
55.8072
20
-80.2987
11
55.81
21
-80.3275
0
LINE
8
BLACK
6
CONTINUOUS
10
55.81
20
-80.3275
11
55.81
21
-80.6725
0
LINE
8
BLACK
6
CONTINUOUS
10
55.81
20
-80.6725
11
55.8072
21
-80.7013
0
LINE
8
BLACK
6
CONTINUOUS
10
55.8072
20
-80.7013
11
55.7988
21
-80.7289
0
LINE
8
BLACK
6
CONTINUOUS
10
55.7988
20
-80.7289
11
55.7851
21
-80.7544
0
LINE
8
BLACK
6
CONTINUOUS
10
55.7851
20
-80.7544
11
55.7668
21
-80.7768
0
LINE
8
BLACK
6
CONTINUOUS
10
55.7668
20
-80.7768
11
55.7444
21
-80.7951
0
LINE
8
BLACK
6
CONTINUOUS
10
55.7444
20
-80.7951
11
55.7189
21
-80.8088
0
LINE
8
BLACK
6
CONTINUOUS
10
55.7189
20
-80.8088
11
55.6913
21
-80.8172
0
LINE
8
BLACK
6
CONTINUOUS
10
55.6913
20
-80.8172
11
55.6625
21
-80.82
0
LINE
8
BLACK
6
CONTINUOUS
10
55.6625
20
-80.82
11
55.3675
21
-80.82
0
LINE
8
BLACK
6
CONTINUOUS
10
55.3675
20
-80.82
11
55.3387
21
-80.8172
0
LINE
8
BLACK
6
CONTINUOUS
10
55.3387
20
-80.8172
11
55.3111
21
-80.8088
0
LINE
8
BLACK
6
CONTINUOUS
10
55.3111
20
-80.8088
11
55.2856
21
-80.7951
0
LINE
8
BLACK
6
CONTINUOUS
10
55.2856
20
-80.7951
11
55.2632
21
-80.7768
0
LINE
8
BLACK
6
CONTINUOUS
10
55.2632
20
-80.7768
11
55.2449
21
-80.7544
0
LINE
8
BLACK
6
CONTINUOUS
10
55.2449
20
-80.7544
11
55.2312
21
-80.7289
0
LINE
8
BLACK
6
CONTINUOUS
10
55.2312
20
-80.7289
11
55.2228
21
-80.7013
0
LINE
8
BLACK
6
CONTINUOUS
10
55.2228
20
-80.7013
11
55.22
21
-80.6725
0
LINE
8
BLACK
6
CONTINUOUS
10
55.22
20
-80.6725
11
55.22
21
-80.3275
0
LINE
8
BLACK
6
CONTINUOUS
10
55.22
20
-80.3275
11
55.2228
21
-80.2987
0
LINE
8
BLACK
6
CONTINUOUS
10
55.2228
20
-80.2987
11
55.2312
21
-80.2711
0
LINE
8
BLACK
6
CONTINUOUS
10
55.2312
20
-80.2711
11
55.2449
21
-80.2456
0
LINE
8
BLACK
6
CONTINUOUS
10
55.2449
20
-80.2456
11
55.2632
21
-80.2232
0
LINE
8
BLACK
6
CONTINUOUS
10
55.2632
20
-80.2232
11
55.2856
21
-80.2049
0
LINE
8
BLACK
6
CONTINUOUS
10
55.2856
20
-80.2049
11
55.3111
21
-80.1912
0
LINE
8
BLACK
6
CONTINUOUS
10
55.3111
20
-80.1912
11
55.3387
21
-80.1828
0
LINE
8
BLACK
6
CONTINUOUS
10
55.3387
20
-80.1828
11
55.3675
21
-80.18
0
LINE
8
BLACK
6
CONTINUOUS
10
55.3675
20
-80.18
11
55.6625
21
-80.18
0
LINE
8
BLACK
6
CONTINUOUS
10
55.6625
20
-80.18
11
55.6913
21
-80.1828
0
LINE
8
BLACK
6
CONTINUOUS
10
56.6613
20
-80.1828
11
56.6889
21
-80.1912
0
LINE
8
BLACK
6
CONTINUOUS
10
56.6889
20
-80.1912
11
56.7144
21
-80.2049
0
LINE
8
BLACK
6
CONTINUOUS
10
56.7144
20
-80.2049
11
56.7368
21
-80.2232
0
LINE
8
BLACK
6
CONTINUOUS
10
56.7368
20
-80.2232
11
56.7551
21
-80.2456
0
LINE
8
BLACK
6
CONTINUOUS
10
56.7551
20
-80.2456
11
56.7688
21
-80.2711
0
LINE
8
BLACK
6
CONTINUOUS
10
56.7688
20
-80.2711
11
56.7772
21
-80.2987
0
LINE
8
BLACK
6
CONTINUOUS
10
56.7772
20
-80.2987
11
56.78
21
-80.3275
0
LINE
8
BLACK
6
CONTINUOUS
10
56.78
20
-80.3275
11
56.78
21
-80.6725
0
LINE
8
BLACK
6
CONTINUOUS
10
56.78
20
-80.6725
11
56.7772
21
-80.7013
0
LINE
8
BLACK
6
CONTINUOUS
10
56.7772
20
-80.7013
11
56.7688
21
-80.7289
0
LINE
8
BLACK
6
CONTINUOUS
10
56.7688
20
-80.7289
11
56.7551
21
-80.7544
0
LINE
8
BLACK
6
CONTINUOUS
10
56.7551
20
-80.7544
11
56.7368
21
-80.7768
0
LINE
8
BLACK
6
CONTINUOUS
10
56.7368
20
-80.7768
11
56.7144
21
-80.7951
0
LINE
8
BLACK
6
CONTINUOUS
10
56.7144
20
-80.7951
11
56.6889
21
-80.8088
0
LINE
8
BLACK
6
CONTINUOUS
10
56.6889
20
-80.8088
11
56.6613
21
-80.8172
0
LINE
8
BLACK
6
CONTINUOUS
10
56.6613
20
-80.8172
11
56.6325
21
-80.82
0
LINE
8
BLACK
6
CONTINUOUS
10
56.6325
20
-80.82
11
56.3375
21
-80.82
0
LINE
8
BLACK
6
CONTINUOUS
10
56.3375
20
-80.82
11
56.3087
21
-80.8172
0
LINE
8
BLACK
6
CONTINUOUS
10
56.3087
20
-80.8172
11
56.2811
21
-80.8088
0
LINE
8
BLACK
6
CONTINUOUS
10
56.2811
20
-80.8088
11
56.2556
21
-80.7951
0
LINE
8
BLACK
6
CONTINUOUS
10
56.2556
20
-80.7951
11
56.2332
21
-80.7768
0
LINE
8
BLACK
6
CONTINUOUS
10
56.2332
20
-80.7768
11
56.2149
21
-80.7544
0
LINE
8
BLACK
6
CONTINUOUS
10
56.2149
20
-80.7544
11
56.2012
21
-80.7289
0
LINE
8
BLACK
6
CONTINUOUS
10
56.2012
20
-80.7289
11
56.1928
21
-80.7013
0
LINE
8
BLACK
6
CONTINUOUS
10
56.1928
20
-80.7013
11
56.19
21
-80.6725
0
LINE
8
BLACK
6
CONTINUOUS
10
56.19
20
-80.6725
11
56.19
21
-80.3275
0
LINE
8
BLACK
6
CONTINUOUS
10
56.19
20
-80.3275
11
56.1928
21
-80.2987
0
LINE
8
BLACK
6
CONTINUOUS
10
56.1928
20
-80.2987
11
56.2012
21
-80.2711
0
LINE
8
BLACK
6
CONTINUOUS
10
56.2012
20
-80.2711
11
56.2149
21
-80.2456
0
LINE
8
BLACK
6
CONTINUOUS
10
56.2149
20
-80.2456
11
56.2332
21
-80.2232
0
LINE
8
BLACK
6
CONTINUOUS
10
56.2332
20
-80.2232
11
56.2556
21
-80.2049
0
LINE
8
BLACK
6
CONTINUOUS
10
56.2556
20
-80.2049
11
56.2811
21
-80.1912
0
LINE
8
BLACK
6
CONTINUOUS
10
56.2811
20
-80.1912
11
56.3087
21
-80.1828
0
LINE
8
BLACK
6
CONTINUOUS
10
56.3087
20
-80.1828
11
56.3375
21
-80.18
0
LINE
8
BLACK
6
CONTINUOUS
10
56.3375
20
-80.18
11
56.6325
21
-80.18
0
LINE
8
BLACK
6
CONTINUOUS
10
56.6325
20
-80.18
11
56.6613
21
-80.1828
0
LINE
8
BLACK
6
CONTINUOUS
10
55.65
20
-77.18
11
55.05
21
-77.18
0
LINE
8
BLACK
6
CONTINUOUS
10
55.05
20
-77.18
11
55.05
21
-76.78
0
LINE
8
BLACK
6
CONTINUOUS
10
55.05
20
-76.78
11
55.65
21
-76.78
0
LINE
8
BLACK
6
CONTINUOUS
10
55.65
20
-76.78
11
55.65
21
-77.18
0
LINE
8
BLACK
6
CONTINUOUS
10
56.95
20
-77.18
11
56.35
21
-77.18
0
LINE
8
BLACK
6
CONTINUOUS
10
56.35
20
-77.18
11
56.35
21
-76.78
0
LINE
8
BLACK
6
CONTINUOUS
10
56.35
20
-76.78
11
56.95
21
-76.78
0
LINE
8
BLACK
6
CONTINUOUS
10
56.95
20
-76.78
11
56.95
21
-77.18
0
LINE
8
BLACK
6
CONTINUOUS
10
70.65
20
-77.18
11
70.05
21
-77.18
0
LINE
8
BLACK
6
CONTINUOUS
10
70.05
20
-77.18
11
70.05
21
-76.78
0
LINE
8
BLACK
6
CONTINUOUS
10
70.05
20
-76.78
11
70.65
21
-76.78
0
LINE
8
BLACK
6
CONTINUOUS
10
70.65
20
-76.78
11
70.65
21
-77.18
0
LINE
8
BLACK
6
CONTINUOUS
10
71.95
20
-77.18
11
71.35
21
-77.18
0
LINE
8
BLACK
6
CONTINUOUS
10
71.35
20
-77.18
11
71.35
21
-76.78
0
LINE
8
BLACK
6
CONTINUOUS
10
71.35
20
-76.78
11
71.95
21
-76.78
0
LINE
8
BLACK
6
CONTINUOUS
10
71.95
20
-76.78
11
71.95
21
-77.18
0
LINE
8
BLACK
6
CONTINUOUS
10
55.65
20
-76.38
11
55.05
21
-76.38
0
LINE
8
BLACK
6
CONTINUOUS
10
55.05
20
-76.38
11
55.05
21
-75.98
0
LINE
8
BLACK
6
CONTINUOUS
10
55.05
20
-75.98
11
55.65
21
-75.98
0
LINE
8
BLACK
6
CONTINUOUS
10
55.65
20
-75.98
11
55.65
21
-76.38
0
LINE
8
BLACK
6
CONTINUOUS
10
56.95
20
-76.38
11
56.35
21
-76.38
0
LINE
8
BLACK
6
CONTINUOUS
10
56.35
20
-76.38
11
56.35
21
-75.98
0
LINE
8
BLACK
6
CONTINUOUS
10
56.35
20
-75.98
11
56.95
21
-75.98
0
LINE
8
BLACK
6
CONTINUOUS
10
56.95
20
-75.98
11
56.95
21
-76.38
0
LINE
8
BLACK
6
CONTINUOUS
10
71.95
20
-76.38
11
71.35
21
-76.38
0
LINE
8
BLACK
6
CONTINUOUS
10
71.35
20
-76.38
11
71.35
21
-75.98
0
LINE
8
BLACK
6
CONTINUOUS
10
71.35
20
-75.98
11
71.95
21
-75.98
0
LINE
8
BLACK
6
CONTINUOUS
10
71.95
20
-75.98
11
71.95
21
-76.38
0
LINE
8
BLACK
6
CONTINUOUS
10
70.65
20
-76.38
11
70.05
21
-76.38
0
LINE
8
BLACK
6
CONTINUOUS
10
70.05
20
-76.38
11
70.05
21
-75.98
0
LINE
8
BLACK
6
CONTINUOUS
10
70.05
20
-75.98
11
70.65
21
-75.98
0
LINE
8
BLACK
6
CONTINUOUS
10
70.65
20
-75.98
11
70.65
21
-76.38
  0
ENDSEC
  0
EOF
