  0
SECTION
  2
HEADER
  9
$ANGBASE
  50
0.0
  9
$ANGDIR
  70
1
  9
$MEASUREMENT
  70
1
  0
ENDSEC
  0
SECTION
  2
TABLES
  0
TABLE
  2
LTYPE
  70
4
  0
LTYPE
  5
40F
  2
CONTINUOUS
  70
0
  3
Solid line
  72
65
  73
0
  40
0.0
  0
LTYPE
  5
410
  2
DASHDOT
 70
0
  3
Dash Dot ____ _ ____ _
 72
65
 73
4
 40
2.0
 49
1.25
 49
-0.25
 49
0.25
 49
-0.25
  0
LTYPE
  5
411
  2
DASHED
 70
0
  3
Dashed __ __ __ __ __
 72
65
 73
2
 40
0.75
 49
0.5
 49
-0.25
  0
LTYPE
  5
43B
  2
DOTTED
 70
0
  3
Dotted .  .  .  .
 72
65
 73
2
 40
0.2
 49
0.0
 49
-0.2
  0
ENDTAB
  0
TABLE
  2
STYLE
  70
4
  0
STYLE
  2
KICAD
  70
0
  40
0
  41
1
  42
1
  50
0
  71
0
  3
isocp.shx
  0
STYLE
  2
KICADB
  70
0
  40
0
  41
1
  42
1
  50
0
  71
0
  3
isocp.shx
  0
STYLE
  2
KICADI
  70
0
  40
0
  41
1
  42
1
  50
15
  71
0
  3
isocp.shx
  0
STYLE
  2
KICADBI
  70
0
  40
0
  41
1
  42
1
  50
15
  71
0
  3
isocp.shx
  0
ENDTAB
  0
TABLE
  2
LAYER
  70
1
  0
LAYER
  2
BLACK
  70
0
  62
7
  6
CONTINUOUS
  0
ENDTAB
  0
ENDSEC
  0
SECTION
  2
ENTITIES
0
LINE
8
BLACK
6
CONTINUOUS
10
57.501
20
-49.2088
11
57.501
21
-47.7902
0
LINE
8
BLACK
6
CONTINUOUS
10
57.5048
20
-49.2864
11
57.501
21
-49.2088
0
LINE
8
BLACK
6
CONTINUOUS
10
57.5162
20
-49.3631
11
57.5048
21
-49.2864
0
LINE
8
BLACK
6
CONTINUOUS
10
57.535
20
-49.4383
11
57.5162
21
-49.3631
0
LINE
8
BLACK
6
CONTINUOUS
10
57.5612
20
-49.5113
11
57.535
21
-49.4383
0
LINE
8
BLACK
6
CONTINUOUS
10
57.5943
20
-49.5814
11
57.5612
21
-49.5113
0
LINE
8
BLACK
6
CONTINUOUS
10
57.6342
20
-49.6479
11
57.5943
21
-49.5814
0
LINE
8
BLACK
6
CONTINUOUS
10
57.6803
20
-49.7102
11
57.6342
21
-49.6479
0
LINE
8
BLACK
6
CONTINUOUS
10
57.7324
20
-49.7676
11
57.6803
21
-49.7102
0
LINE
8
BLACK
6
CONTINUOUS
10
57.7898
20
-49.8197
11
57.7324
21
-49.7676
0
LINE
8
BLACK
6
CONTINUOUS
10
57.8521
20
-49.8659
11
57.7898
21
-49.8197
0
LINE
8
BLACK
6
CONTINUOUS
10
57.9186
20
-49.9057
11
57.8521
21
-49.8659
0
LINE
8
BLACK
6
CONTINUOUS
10
57.9887
20
-49.9389
11
57.9186
21
-49.9057
0
LINE
8
BLACK
6
CONTINUOUS
10
58.0617
20
-49.965
11
57.9887
21
-49.9389
0
LINE
8
BLACK
6
CONTINUOUS
10
58.1369
20
-49.9838
11
58.0617
21
-49.965
0
LINE
8
BLACK
6
CONTINUOUS
10
58.2136
20
-49.9952
11
58.1369
21
-49.9838
0
LINE
8
BLACK
6
CONTINUOUS
10
58.2913
20
-49.999
11
58.2136
21
-49.9952
0
LINE
8
BLACK
6
CONTINUOUS
10
61.4948
20
-49.999
11
58.2913
21
-49.999
0
LINE
8
BLACK
6
CONTINUOUS
10
61.5628
20
-50.0034
11
61.4948
21
-49.999
0
LINE
8
BLACK
6
CONTINUOUS
10
61.6044
20
-50.0103
11
61.5628
21
-50.0034
0
LINE
8
BLACK
6
CONTINUOUS
10
61.6545
20
-50.0237
11
61.6044
21
-50.0103
0
LINE
8
BLACK
6
CONTINUOUS
10
61.7034
20
-50.0425
11
61.6545
21
-50.0237
0
LINE
8
BLACK
6
CONTINUOUS
10
61.7411
20
-50.0613
11
61.7034
21
-50.0425
0
LINE
8
BLACK
6
CONTINUOUS
10
61.7593
20
-50.0719
11
61.7411
21
-50.0613
0
LINE
8
BLACK
6
CONTINUOUS
10
61.8027
20
-50.1013
11
61.7593
21
-50.0719
0
LINE
8
BLACK
6
CONTINUOUS
10
61.8353
20
-50.1281
11
61.8027
21
-50.1013
0
LINE
8
BLACK
6
CONTINUOUS
10
61.8723
20
-50.1652
11
61.8353
21
-50.1281
0
LINE
8
BLACK
6
CONTINUOUS
10
61.9053
20
-50.2059
11
61.8723
21
-50.1652
0
LINE
8
BLACK
6
CONTINUOUS
10
61.9335
20
-50.2494
11
61.9053
21
-50.2059
0
LINE
8
BLACK
6
CONTINUOUS
10
61.9573
20
-50.2961
11
61.9335
21
-50.2494
0
LINE
8
BLACK
6
CONTINUOUS
10
61.9727
20
-50.3353
11
61.9573
21
-50.2961
0
LINE
8
BLACK
6
CONTINUOUS
10
61.9792
20
-50.3553
11
61.9727
21
-50.3353
0
LINE
8
BLACK
6
CONTINUOUS
10
61.9917
20
-50.4062
11
61.9792
21
-50.3553
0
LINE
8
BLACK
6
CONTINUOUS
10
61.998
20
-50.4479
11
61.9917
21
-50.4062
0
LINE
8
BLACK
6
CONTINUOUS
10
62.001
20
-50.5052
11
61.998
21
-50.4479
0
LINE
8
BLACK
6
CONTINUOUS
10
62.001
20
-70.6399
11
62.001
21
-50.5052
0
LINE
8
BLACK
6
CONTINUOUS
10
61.998
20
-70.6471
11
62.001
21
-70.6399
0
LINE
8
BLACK
6
CONTINUOUS
10
61.9898
20
-70.6501
11
61.998
21
-70.6471
0
LINE
8
BLACK
6
CONTINUOUS
10
61.1002
20
-70.6501
11
61.9898
21
-70.6501
0
LINE
8
BLACK
6
CONTINUOUS
10
61.0343
20
-70.6524
11
61.1002
21
-70.6501
0
LINE
8
BLACK
6
CONTINUOUS
10
60.9488
20
-70.6614
11
61.0343
21
-70.6524
0
LINE
8
BLACK
6
CONTINUOUS
10
60.8646
20
-70.679
11
60.9488
21
-70.6614
0
LINE
8
BLACK
6
CONTINUOUS
10
60.7826
20
-70.705
11
60.8646
21
-70.679
0
LINE
8
BLACK
6
CONTINUOUS
10
60.7086
20
-70.7367
11
60.7826
21
-70.705
0
LINE
8
BLACK
6
CONTINUOUS
10
60.6287
20
-70.7811
11
60.7086
21
-70.7367
0
LINE
8
BLACK
6
CONTINUOUS
10
60.5583
20
-70.8305
11
60.6287
21
-70.7811
0
LINE
8
BLACK
6
CONTINUOUS
10
60.4972
20
-70.8829
11
60.5583
21
-70.8305
0
LINE
8
BLACK
6
CONTINUOUS
10
60.4377
20
-70.945
11
60.4972
21
-70.8829
0
LINE
8
BLACK
6
CONTINUOUS
10
60.3818
20
-71.0173
11
60.4377
21
-70.945
0
LINE
8
BLACK
6
CONTINUOUS
10
60.3365
20
-71.0905
11
60.3818
21
-71.0173
0
LINE
8
BLACK
6
CONTINUOUS
10
60.3011
20
-71.1628
11
60.3365
21
-71.0905
0
LINE
8
BLACK
6
CONTINUOUS
10
60.2709
20
-71.2433
11
60.3011
21
-71.1628
0
LINE
8
BLACK
6
CONTINUOUS
10
60.248
20
-71.3318
11
60.2709
21
-71.2433
0
LINE
8
BLACK
6
CONTINUOUS
10
60.2358
20
-71.4114
11
60.248
21
-71.3318
0
LINE
8
BLACK
6
CONTINUOUS
10
60.2312
20
-71.4973
11
60.2358
21
-71.4114
0
LINE
8
BLACK
6
CONTINUOUS
10
60.2358
20
-71.5886
11
60.2312
21
-71.4973
0
LINE
8
BLACK
6
CONTINUOUS
10
60.248
20
-71.6682
11
60.2358
21
-71.5886
0
LINE
8
BLACK
6
CONTINUOUS
10
60.2693
20
-71.7515
11
60.248
21
-71.6682
0
LINE
8
BLACK
6
CONTINUOUS
10
60.3011
20
-71.8372
11
60.2693
21
-71.7515
0
LINE
8
BLACK
6
CONTINUOUS
10
60.3392
20
-71.9143
11
60.3011
21
-71.8372
0
LINE
8
BLACK
6
CONTINUOUS
10
60.3849
20
-71.9871
11
60.3392
21
-71.9143
0
LINE
8
BLACK
6
CONTINUOUS
10
60.4342
20
-72.0508
11
60.3849
21
-71.9871
0
LINE
8
BLACK
6
CONTINUOUS
10
60.4972
20
-72.1171
11
60.4342
21
-72.0508
0
LINE
8
BLACK
6
CONTINUOUS
10
60.5583
20
-72.1695
11
60.4972
21
-72.1171
0
LINE
8
BLACK
6
CONTINUOUS
10
60.6287
20
-72.2189
11
60.5583
21
-72.1695
0
LINE
8
BLACK
6
CONTINUOUS
10
60.7086
20
-72.2633
11
60.6287
21
-72.2189
0
LINE
8
BLACK
6
CONTINUOUS
10
60.7878
20
-72.2969
11
60.7086
21
-72.2633
0
LINE
8
BLACK
6
CONTINUOUS
10
60.8699
20
-72.3224
11
60.7878
21
-72.2969
0
LINE
8
BLACK
6
CONTINUOUS
10
60.9542
20
-72.3394
11
60.8699
21
-72.3224
0
LINE
8
BLACK
6
CONTINUOUS
10
61.0343
20
-72.3476
11
60.9542
21
-72.3394
0
LINE
8
BLACK
6
CONTINUOUS
10
61.1002
20
-72.3499
11
61.0343
21
-72.3476
0
LINE
8
BLACK
6
CONTINUOUS
10
61.9898
20
-72.3499
11
61.1002
21
-72.3499
0
LINE
8
BLACK
6
CONTINUOUS
10
61.9972
20
-72.3523
11
61.9898
21
-72.3499
0
LINE
8
BLACK
6
CONTINUOUS
10
62.0008
20
-72.359
11
61.9972
21
-72.3523
0
LINE
8
BLACK
6
CONTINUOUS
10
62.001
20
-86.4948
11
62.0008
21
-72.359
0
LINE
8
BLACK
6
CONTINUOUS
10
61.9979
20
-86.5526
11
62.001
21
-86.4948
0
LINE
8
BLACK
6
CONTINUOUS
10
61.9898
20
-86.6039
11
61.9979
21
-86.5526
0
LINE
8
BLACK
6
CONTINUOUS
10
61.9792
20
-86.6446
11
61.9898
21
-86.6039
0
LINE
8
BLACK
6
CONTINUOUS
10
61.9573
20
-86.7039
11
61.9792
21
-86.6446
0
LINE
8
BLACK
6
CONTINUOUS
10
61.9338
20
-86.7502
11
61.9573
21
-86.7039
0
LINE
8
BLACK
6
CONTINUOUS
10
61.9111
20
-86.7856
11
61.9338
21
-86.7502
0
LINE
8
BLACK
6
CONTINUOUS
10
61.8987
20
-86.8027
11
61.9111
21
-86.7856
0
LINE
8
BLACK
6
CONTINUOUS
10
61.8649
20
-86.8427
11
61.8987
21
-86.8027
0
LINE
8
BLACK
6
CONTINUOUS
10
61.8348
20
-86.8723
11
61.8649
21
-86.8427
0
LINE
8
BLACK
6
CONTINUOUS
10
61.7945
20
-86.905
11
61.8348
21
-86.8723
0
LINE
8
BLACK
6
CONTINUOUS
10
61.7506
20
-86.9335
11
61.7945
21
-86.905
0
LINE
8
BLACK
6
CONTINUOUS
10
61.7132
20
-86.9529
11
61.7506
21
-86.9335
0
LINE
8
BLACK
6
CONTINUOUS
10
61.694
20
-86.9615
11
61.7132
21
-86.9529
0
LINE
8
BLACK
6
CONTINUOUS
10
61.6449
20
-86.9791
11
61.694
21
-86.9615
0
LINE
8
BLACK
6
CONTINUOUS
10
61.6043
20
-86.9897
11
61.6449
21
-86.9791
0
LINE
8
BLACK
6
CONTINUOUS
10
61.5625
20
-86.9966
11
61.6043
21
-86.9897
0
LINE
8
BLACK
6
CONTINUOUS
10
61.4948
20
-87.001
11
61.5625
21
-86.9966
0
LINE
8
BLACK
6
CONTINUOUS
10
58.2913
20
-87.001
11
61.4948
21
-87.001
0
LINE
8
BLACK
6
CONTINUOUS
10
58.2136
20
-87.0048
11
58.2913
21
-87.001
0
LINE
8
BLACK
6
CONTINUOUS
10
58.1369
20
-87.0162
11
58.2136
21
-87.0048
0
LINE
8
BLACK
6
CONTINUOUS
10
58.0617
20
-87.035
11
58.1369
21
-87.0162
0
LINE
8
BLACK
6
CONTINUOUS
10
57.9887
20
-87.0611
11
58.0617
21
-87.035
0
LINE
8
BLACK
6
CONTINUOUS
10
57.9186
20
-87.0943
11
57.9887
21
-87.0611
0
LINE
8
BLACK
6
CONTINUOUS
10
57.8521
20
-87.1341
11
57.9186
21
-87.0943
0
LINE
8
BLACK
6
CONTINUOUS
10
57.7898
20
-87.1803
11
57.8521
21
-87.1341
0
LINE
8
BLACK
6
CONTINUOUS
10
57.7324
20
-87.2324
11
57.7898
21
-87.1803
0
LINE
8
BLACK
6
CONTINUOUS
10
57.6803
20
-87.2898
11
57.7324
21
-87.2324
0
LINE
8
BLACK
6
CONTINUOUS
10
57.6342
20
-87.3521
11
57.6803
21
-87.2898
0
LINE
8
BLACK
6
CONTINUOUS
10
57.5943
20
-87.4186
11
57.6342
21
-87.3521
0
LINE
8
BLACK
6
CONTINUOUS
10
57.5612
20
-87.4887
11
57.5943
21
-87.4186
0
LINE
8
BLACK
6
CONTINUOUS
10
57.535
20
-87.5617
11
57.5612
21
-87.4887
0
LINE
8
BLACK
6
CONTINUOUS
10
57.5162
20
-87.6369
11
57.535
21
-87.5617
0
LINE
8
BLACK
6
CONTINUOUS
10
57.5048
20
-87.7136
11
57.5162
21
-87.6369
0
LINE
8
BLACK
6
CONTINUOUS
10
57.501
20
-87.7912
11
57.5048
21
-87.7136
0
LINE
8
BLACK
6
CONTINUOUS
10
57.501
20
-89.2098
11
57.501
21
-87.7912
0
LINE
8
BLACK
6
CONTINUOUS
10
57.5048
20
-89.2874
11
57.501
21
-89.2098
0
LINE
8
BLACK
6
CONTINUOUS
10
57.5162
20
-89.3641
11
57.5048
21
-89.2874
0
LINE
8
BLACK
6
CONTINUOUS
10
57.535
20
-89.4393
11
57.5162
21
-89.3641
0
LINE
8
BLACK
6
CONTINUOUS
10
57.5612
20
-89.5123
11
57.535
21
-89.4393
0
LINE
8
BLACK
6
CONTINUOUS
10
57.5943
20
-89.5824
11
57.5612
21
-89.5123
0
LINE
8
BLACK
6
CONTINUOUS
10
57.6342
20
-89.6489
11
57.5943
21
-89.5824
0
LINE
8
BLACK
6
CONTINUOUS
10
57.6803
20
-89.7112
11
57.6342
21
-89.6489
0
LINE
8
BLACK
6
CONTINUOUS
10
57.7324
20
-89.7686
11
57.6803
21
-89.7112
0
LINE
8
BLACK
6
CONTINUOUS
10
57.7898
20
-89.8207
11
57.7324
21
-89.7686
0
LINE
8
BLACK
6
CONTINUOUS
10
57.8521
20
-89.8669
11
57.7898
21
-89.8207
0
LINE
8
BLACK
6
CONTINUOUS
10
57.9186
20
-89.9067
11
57.8521
21
-89.8669
0
LINE
8
BLACK
6
CONTINUOUS
10
57.9887
20
-89.9399
11
57.9186
21
-89.9067
0
LINE
8
BLACK
6
CONTINUOUS
10
58.0617
20
-89.966
11
57.9887
21
-89.9399
0
LINE
8
BLACK
6
CONTINUOUS
10
58.1369
20
-89.9848
11
58.0617
21
-89.966
0
LINE
8
BLACK
6
CONTINUOUS
10
58.2136
20
-89.9962
11
58.1369
21
-89.9848
0
LINE
8
BLACK
6
CONTINUOUS
10
58.2913
20
-90
11
58.2136
21
-89.9962
0
LINE
8
BLACK
6
CONTINUOUS
10
68.7088
20
-90
11
58.2913
21
-90
0
LINE
8
BLACK
6
CONTINUOUS
10
68.7865
20
-89.9962
11
68.7088
21
-90
0
LINE
8
BLACK
6
CONTINUOUS
10
68.8631
20
-89.9848
11
68.7865
21
-89.9962
0
LINE
8
BLACK
6
CONTINUOUS
10
68.9383
20
-89.966
11
68.8631
21
-89.9848
0
LINE
8
BLACK
6
CONTINUOUS
10
69.0113
20
-89.9399
11
68.9383
21
-89.966
0
LINE
8
BLACK
6
CONTINUOUS
10
69.0814
20
-89.9067
11
69.0113
21
-89.9399
0
LINE
8
BLACK
6
CONTINUOUS
10
69.1479
20
-89.8669
11
69.0814
21
-89.9067
0
LINE
8
BLACK
6
CONTINUOUS
10
69.2102
20
-89.8207
11
69.1479
21
-89.8669
0
LINE
8
BLACK
6
CONTINUOUS
10
69.2676
20
-89.7686
11
69.2102
21
-89.8207
0
LINE
8
BLACK
6
CONTINUOUS
10
69.3197
20
-89.7112
11
69.2676
21
-89.7686
0
LINE
8
BLACK
6
CONTINUOUS
10
69.3659
20
-89.6489
11
69.3197
21
-89.7112
0
LINE
8
BLACK
6
CONTINUOUS
10
69.4057
20
-89.5824
11
69.3659
21
-89.6489
0
LINE
8
BLACK
6
CONTINUOUS
10
69.4389
20
-89.5123
11
69.4057
21
-89.5824
0
LINE
8
BLACK
6
CONTINUOUS
10
69.465
20
-89.4393
11
69.4389
21
-89.5123
0
LINE
8
BLACK
6
CONTINUOUS
10
69.4838
20
-89.3641
11
69.465
21
-89.4393
0
LINE
8
BLACK
6
CONTINUOUS
10
69.4952
20
-89.2874
11
69.4838
21
-89.3641
0
LINE
8
BLACK
6
CONTINUOUS
10
69.499
20
-89.2098
11
69.4952
21
-89.2874
0
LINE
8
BLACK
6
CONTINUOUS
10
69.499
20
-87.7912
11
69.499
21
-89.2098
0
LINE
8
BLACK
6
CONTINUOUS
10
69.4952
20
-87.7136
11
69.499
21
-87.7912
0
LINE
8
BLACK
6
CONTINUOUS
10
69.4838
20
-87.6369
11
69.4952
21
-87.7136
0
LINE
8
BLACK
6
CONTINUOUS
10
69.465
20
-87.5617
11
69.4838
21
-87.6369
0
LINE
8
BLACK
6
CONTINUOUS
10
69.4389
20
-87.4887
11
69.465
21
-87.5617
0
LINE
8
BLACK
6
CONTINUOUS
10
69.4057
20
-87.4186
11
69.4389
21
-87.4887
0
LINE
8
BLACK
6
CONTINUOUS
10
69.3659
20
-87.3521
11
69.4057
21
-87.4186
0
LINE
8
BLACK
6
CONTINUOUS
10
69.3197
20
-87.2898
11
69.3659
21
-87.3521
0
LINE
8
BLACK
6
CONTINUOUS
10
69.2676
20
-87.2324
11
69.3197
21
-87.2898
0
LINE
8
BLACK
6
CONTINUOUS
10
69.2102
20
-87.1803
11
69.2676
21
-87.2324
0
LINE
8
BLACK
6
CONTINUOUS
10
69.1479
20
-87.1341
11
69.2102
21
-87.1803
0
LINE
8
BLACK
6
CONTINUOUS
10
69.0814
20
-87.0943
11
69.1479
21
-87.1341
0
LINE
8
BLACK
6
CONTINUOUS
10
69.0113
20
-87.0611
11
69.0814
21
-87.0943
0
LINE
8
BLACK
6
CONTINUOUS
10
68.9383
20
-87.035
11
69.0113
21
-87.0611
0
LINE
8
BLACK
6
CONTINUOUS
10
68.8631
20
-87.0162
11
68.9383
21
-87.035
0
LINE
8
BLACK
6
CONTINUOUS
10
68.7865
20
-87.0048
11
68.8631
21
-87.0162
0
LINE
8
BLACK
6
CONTINUOUS
10
68.7088
20
-87.001
11
68.7865
21
-87.0048
0
LINE
8
BLACK
6
CONTINUOUS
10
65.5053
20
-87.001
11
68.7088
21
-87.001
0
LINE
8
BLACK
6
CONTINUOUS
10
65.4373
20
-86.9966
11
65.5053
21
-87.001
0
LINE
8
BLACK
6
CONTINUOUS
10
65.3956
20
-86.9897
11
65.4373
21
-86.9966
0
LINE
8
BLACK
6
CONTINUOUS
10
65.3551
20
-86.9791
11
65.3956
21
-86.9897
0
LINE
8
BLACK
6
CONTINUOUS
10
65.3061
20
-86.9615
11
65.3551
21
-86.9791
0
LINE
8
BLACK
6
CONTINUOUS
10
65.2869
20
-86.9529
11
65.3061
21
-86.9615
0
LINE
8
BLACK
6
CONTINUOUS
10
65.2494
20
-86.9335
11
65.2869
21
-86.9529
0
LINE
8
BLACK
6
CONTINUOUS
10
65.2059
20
-86.9052
11
65.2494
21
-86.9335
0
LINE
8
BLACK
6
CONTINUOUS
10
65.1651
20
-86.8723
11
65.2059
21
-86.9052
0
LINE
8
BLACK
6
CONTINUOUS
10
65.1352
20
-86.8427
11
65.1651
21
-86.8723
0
LINE
8
BLACK
6
CONTINUOUS
10
65.1211
20
-86.8271
11
65.1352
21
-86.8427
0
LINE
8
BLACK
6
CONTINUOUS
10
65.089
20
-86.7857
11
65.1211
21
-86.8271
0
LINE
8
BLACK
6
CONTINUOUS
10
65.0662
20
-86.7501
11
65.089
21
-86.7857
0
LINE
8
BLACK
6
CONTINUOUS
10
65.0427
20
-86.7039
11
65.0662
21
-86.7501
0
LINE
8
BLACK
6
CONTINUOUS
10
65.0239
20
-86.655
11
65.0427
21
-86.7039
0
LINE
8
BLACK
6
CONTINUOUS
10
65.0127
20
-86.6144
11
65.0239
21
-86.655
0
LINE
8
BLACK
6
CONTINUOUS
10
65.002
20
-86.5521
11
65.0127
21
-86.6144
0
LINE
8
BLACK
6
CONTINUOUS
10
64.999
20
-86.4947
11
65.002
21
-86.5521
0
LINE
8
BLACK
6
CONTINUOUS
10
64.9992
20
-72.359
11
64.999
21
-86.4947
0
LINE
8
BLACK
6
CONTINUOUS
10
65.0028
20
-72.3523
11
64.9992
21
-72.359
0
LINE
8
BLACK
6
CONTINUOUS
10
65.0102
20
-72.3499
11
65.0028
21
-72.3523
0
LINE
8
BLACK
6
CONTINUOUS
10
65.8998
20
-72.3499
11
65.0102
21
-72.3499
0
LINE
8
BLACK
6
CONTINUOUS
10
65.9657
20
-72.3476
11
65.8998
21
-72.3499
0
LINE
8
BLACK
6
CONTINUOUS
10
66.0512
20
-72.3386
11
65.9657
21
-72.3476
0
LINE
8
BLACK
6
CONTINUOUS
10
66.1354
20
-72.321
11
66.0512
21
-72.3386
0
LINE
8
BLACK
6
CONTINUOUS
10
66.2174
20
-72.295
11
66.1354
21
-72.321
0
LINE
8
BLACK
6
CONTINUOUS
10
66.2914
20
-72.2633
11
66.2174
21
-72.295
0
LINE
8
BLACK
6
CONTINUOUS
10
66.3713
20
-72.2189
11
66.2914
21
-72.2633
0
LINE
8
BLACK
6
CONTINUOUS
10
66.4417
20
-72.1695
11
66.3713
21
-72.2189
0
LINE
8
BLACK
6
CONTINUOUS
10
66.5028
20
-72.1171
11
66.4417
21
-72.1695
0
LINE
8
BLACK
6
CONTINUOUS
10
66.5658
20
-72.0508
11
66.5028
21
-72.1171
0
LINE
8
BLACK
6
CONTINUOUS
10
66.6151
20
-71.9871
11
66.5658
21
-72.0508
0
LINE
8
BLACK
6
CONTINUOUS
10
66.6608
20
-71.9143
11
66.6151
21
-71.9871
0
LINE
8
BLACK
6
CONTINUOUS
10
66.699
20
-71.8372
11
66.6608
21
-71.9143
0
LINE
8
BLACK
6
CONTINUOUS
10
66.7307
20
-71.7515
11
66.699
21
-71.8372
0
LINE
8
BLACK
6
CONTINUOUS
10
66.752
20
-71.6682
11
66.7307
21
-71.7515
0
LINE
8
BLACK
6
CONTINUOUS
10
66.7642
20
-71.5886
11
66.752
21
-71.6682
0
LINE
8
BLACK
6
CONTINUOUS
10
66.7688
20
-71.4973
11
66.7642
21
-71.5886
0
LINE
8
BLACK
6
CONTINUOUS
10
66.7642
20
-71.4114
11
66.7688
21
-71.4973
0
LINE
8
BLACK
6
CONTINUOUS
10
66.752
20
-71.3318
11
66.7642
21
-71.4114
0
LINE
8
BLACK
6
CONTINUOUS
10
66.7291
20
-71.2433
11
66.752
21
-71.3318
0
LINE
8
BLACK
6
CONTINUOUS
10
66.699
20
-71.1628
11
66.7291
21
-71.2433
0
LINE
8
BLACK
6
CONTINUOUS
10
66.6635
20
-71.0905
11
66.699
21
-71.1628
0
LINE
8
BLACK
6
CONTINUOUS
10
66.6182
20
-71.0173
11
66.6635
21
-71.0905
0
LINE
8
BLACK
6
CONTINUOUS
10
66.5623
20
-70.945
11
66.6182
21
-71.0173
0
LINE
8
BLACK
6
CONTINUOUS
10
66.5028
20
-70.8829
11
66.5623
21
-70.945
0
LINE
8
BLACK
6
CONTINUOUS
10
66.4417
20
-70.8305
11
66.5028
21
-70.8829
0
LINE
8
BLACK
6
CONTINUOUS
10
66.3713
20
-70.7811
11
66.4417
21
-70.8305
0
LINE
8
BLACK
6
CONTINUOUS
10
66.2914
20
-70.7367
11
66.3713
21
-70.7811
0
LINE
8
BLACK
6
CONTINUOUS
10
66.2174
20
-70.705
11
66.2914
21
-70.7367
0
LINE
8
BLACK
6
CONTINUOUS
10
66.1354
20
-70.679
11
66.2174
21
-70.705
0
LINE
8
BLACK
6
CONTINUOUS
10
66.0512
20
-70.6614
11
66.1354
21
-70.679
0
LINE
8
BLACK
6
CONTINUOUS
10
65.9657
20
-70.6524
11
66.0512
21
-70.6614
0
LINE
8
BLACK
6
CONTINUOUS
10
65.8998
20
-70.6501
11
65.9657
21
-70.6524
0
LINE
8
BLACK
6
CONTINUOUS
10
65.0102
20
-70.6501
11
65.8998
21
-70.6501
0
LINE
8
BLACK
6
CONTINUOUS
10
65.002
20
-70.6471
11
65.0102
21
-70.6501
0
LINE
8
BLACK
6
CONTINUOUS
10
64.999
20
-70.6399
11
65.002
21
-70.6471
0
LINE
8
BLACK
6
CONTINUOUS
10
64.999
20
-50.5051
11
64.999
21
-70.6399
0
LINE
8
BLACK
6
CONTINUOUS
10
65.002
20
-50.4479
11
64.999
21
-50.5051
0
LINE
8
BLACK
6
CONTINUOUS
10
65.0083
20
-50.4063
11
65.002
21
-50.4479
0
LINE
8
BLACK
6
CONTINUOUS
10
65.0127
20
-50.3857
11
65.0083
21
-50.4063
0
LINE
8
BLACK
6
CONTINUOUS
10
65.0273
20
-50.3354
11
65.0127
21
-50.3857
0
LINE
8
BLACK
6
CONTINUOUS
10
65.0427
20
-50.2961
11
65.0273
21
-50.3354
0
LINE
8
BLACK
6
CONTINUOUS
10
65.0665
20
-50.2494
11
65.0427
21
-50.2961
0
LINE
8
BLACK
6
CONTINUOUS
10
65.0951
20
-50.2055
11
65.0665
21
-50.2494
0
LINE
8
BLACK
6
CONTINUOUS
10
65.1278
20
-50.1651
11
65.0951
21
-50.2055
0
LINE
8
BLACK
6
CONTINUOUS
10
65.1648
20
-50.128
11
65.1278
21
-50.1651
0
LINE
8
BLACK
6
CONTINUOUS
10
65.1973
20
-50.1013
11
65.1648
21
-50.128
0
LINE
8
BLACK
6
CONTINUOUS
10
65.2144
20
-50.089
11
65.1973
21
-50.1013
0
LINE
8
BLACK
6
CONTINUOUS
10
65.2589
20
-50.0613
11
65.2144
21
-50.089
0
LINE
8
BLACK
6
CONTINUOUS
10
65.2966
20
-50.0425
11
65.2589
21
-50.0613
0
LINE
8
BLACK
6
CONTINUOUS
10
65.3451
20
-50.0239
11
65.2966
21
-50.0425
0
LINE
8
BLACK
6
CONTINUOUS
10
65.3957
20
-50.0103
11
65.3451
21
-50.0239
0
LINE
8
BLACK
6
CONTINUOUS
10
65.4372
20
-50.0034
11
65.3957
21
-50.0103
0
LINE
8
BLACK
6
CONTINUOUS
10
65.5052
20
-49.999
11
65.4372
21
-50.0034
0
LINE
8
BLACK
6
CONTINUOUS
10
68.7088
20
-49.999
11
65.5052
21
-49.999
0
LINE
8
BLACK
6
CONTINUOUS
10
68.7865
20
-49.9952
11
68.7088
21
-49.999
0
LINE
8
BLACK
6
CONTINUOUS
10
68.8631
20
-49.9838
11
68.7865
21
-49.9952
0
LINE
8
BLACK
6
CONTINUOUS
10
68.9383
20
-49.965
11
68.8631
21
-49.9838
0
LINE
8
BLACK
6
CONTINUOUS
10
69.0113
20
-49.9389
11
68.9383
21
-49.965
0
LINE
8
BLACK
6
CONTINUOUS
10
69.0814
20
-49.9057
11
69.0113
21
-49.9389
0
LINE
8
BLACK
6
CONTINUOUS
10
69.1479
20
-49.8659
11
69.0814
21
-49.9057
0
LINE
8
BLACK
6
CONTINUOUS
10
69.2102
20
-49.8197
11
69.1479
21
-49.8659
0
LINE
8
BLACK
6
CONTINUOUS
10
69.2676
20
-49.7676
11
69.2102
21
-49.8197
0
LINE
8
BLACK
6
CONTINUOUS
10
69.3197
20
-49.7102
11
69.2676
21
-49.7676
0
LINE
8
BLACK
6
CONTINUOUS
10
69.3659
20
-49.6479
11
69.3197
21
-49.7102
0
LINE
8
BLACK
6
CONTINUOUS
10
69.4057
20
-49.5814
11
69.3659
21
-49.6479
0
LINE
8
BLACK
6
CONTINUOUS
10
69.4389
20
-49.5113
11
69.4057
21
-49.5814
0
LINE
8
BLACK
6
CONTINUOUS
10
69.465
20
-49.4383
11
69.4389
21
-49.5113
0
LINE
8
BLACK
6
CONTINUOUS
10
69.4838
20
-49.3631
11
69.465
21
-49.4383
0
LINE
8
BLACK
6
CONTINUOUS
10
69.4952
20
-49.2864
11
69.4838
21
-49.3631
0
LINE
8
BLACK
6
CONTINUOUS
10
69.499
20
-49.2088
11
69.4952
21
-49.2864
0
LINE
8
BLACK
6
CONTINUOUS
10
69.499
20
-47.7902
11
69.499
21
-49.2088
0
LINE
8
BLACK
6
CONTINUOUS
10
69.4952
20
-47.7126
11
69.499
21
-47.7902
0
LINE
8
BLACK
6
CONTINUOUS
10
69.4838
20
-47.6359
11
69.4952
21
-47.7126
0
LINE
8
BLACK
6
CONTINUOUS
10
69.465
20
-47.5607
11
69.4838
21
-47.6359
0
LINE
8
BLACK
6
CONTINUOUS
10
69.4389
20
-47.4877
11
69.465
21
-47.5607
0
LINE
8
BLACK
6
CONTINUOUS
10
69.4057
20
-47.4176
11
69.4389
21
-47.4877
0
LINE
8
BLACK
6
CONTINUOUS
10
69.3659
20
-47.3511
11
69.4057
21
-47.4176
0
LINE
8
BLACK
6
CONTINUOUS
10
69.3197
20
-47.2888
11
69.3659
21
-47.3511
0
LINE
8
BLACK
6
CONTINUOUS
10
69.2676
20
-47.2314
11
69.3197
21
-47.2888
0
LINE
8
BLACK
6
CONTINUOUS
10
69.2102
20
-47.1793
11
69.2676
21
-47.2314
0
LINE
8
BLACK
6
CONTINUOUS
10
69.1479
20
-47.1331
11
69.2102
21
-47.1793
0
LINE
8
BLACK
6
CONTINUOUS
10
69.0814
20
-47.0933
11
69.1479
21
-47.1331
0
LINE
8
BLACK
6
CONTINUOUS
10
69.0113
20
-47.0601
11
69.0814
21
-47.0933
0
LINE
8
BLACK
6
CONTINUOUS
10
68.9383
20
-47.034
11
69.0113
21
-47.0601
0
LINE
8
BLACK
6
CONTINUOUS
10
68.8631
20
-47.0152
11
68.9383
21
-47.034
0
LINE
8
BLACK
6
CONTINUOUS
10
68.7865
20
-47.0038
11
68.8631
21
-47.0152
0
LINE
8
BLACK
6
CONTINUOUS
10
68.7088
20
-47
11
68.7865
21
-47.0038
0
LINE
8
BLACK
6
CONTINUOUS
10
58.2913
20
-47
11
68.7088
21
-47
0
LINE
8
BLACK
6
CONTINUOUS
10
58.2136
20
-47.0038
11
58.2913
21
-47
0
LINE
8
BLACK
6
CONTINUOUS
10
58.1369
20
-47.0152
11
58.2136
21
-47.0038
0
LINE
8
BLACK
6
CONTINUOUS
10
58.0617
20
-47.034
11
58.1369
21
-47.0152
0
LINE
8
BLACK
6
CONTINUOUS
10
57.9887
20
-47.0601
11
58.0617
21
-47.034
0
LINE
8
BLACK
6
CONTINUOUS
10
57.9186
20
-47.0933
11
57.9887
21
-47.0601
0
LINE
8
BLACK
6
CONTINUOUS
10
57.8521
20
-47.1331
11
57.9186
21
-47.0933
0
LINE
8
BLACK
6
CONTINUOUS
10
57.7898
20
-47.1793
11
57.8521
21
-47.1331
0
LINE
8
BLACK
6
CONTINUOUS
10
57.7324
20
-47.2314
11
57.7898
21
-47.1793
0
LINE
8
BLACK
6
CONTINUOUS
10
57.6803
20
-47.2888
11
57.7324
21
-47.2314
0
LINE
8
BLACK
6
CONTINUOUS
10
57.6342
20
-47.3511
11
57.6803
21
-47.2888
0
LINE
8
BLACK
6
CONTINUOUS
10
57.5943
20
-47.4176
11
57.6342
21
-47.3511
0
LINE
8
BLACK
6
CONTINUOUS
10
57.5612
20
-47.4877
11
57.5943
21
-47.4176
0
LINE
8
BLACK
6
CONTINUOUS
10
57.535
20
-47.5607
11
57.5612
21
-47.4877
0
LINE
8
BLACK
6
CONTINUOUS
10
57.5162
20
-47.6359
11
57.535
21
-47.5607
0
LINE
8
BLACK
6
CONTINUOUS
10
57.5048
20
-47.7126
11
57.5162
21
-47.6359
0
LINE
8
BLACK
6
CONTINUOUS
10
57.501
20
-47.7902
11
57.5048
21
-47.7126
0
LINE
8
BLACK
6
CONTINUOUS
10
50.002
20
-72.3529
11
49.999
21
-72.3601
0
LINE
8
BLACK
6
CONTINUOUS
10
50.0102
20
-72.3499
11
50.002
21
-72.3529
0
LINE
8
BLACK
6
CONTINUOUS
10
50.8998
20
-72.3499
11
50.0102
21
-72.3499
0
LINE
8
BLACK
6
CONTINUOUS
10
50.9657
20
-72.3476
11
50.8998
21
-72.3499
0
LINE
8
BLACK
6
CONTINUOUS
10
51.0512
20
-72.3386
11
50.9657
21
-72.3476
0
LINE
8
BLACK
6
CONTINUOUS
10
51.1354
20
-72.321
11
51.0512
21
-72.3386
0
LINE
8
BLACK
6
CONTINUOUS
10
51.2174
20
-72.295
11
51.1354
21
-72.321
0
LINE
8
BLACK
6
CONTINUOUS
10
51.2914
20
-72.2633
11
51.2174
21
-72.295
0
LINE
8
BLACK
6
CONTINUOUS
10
51.3713
20
-72.2189
11
51.2914
21
-72.2633
0
LINE
8
BLACK
6
CONTINUOUS
10
51.4417
20
-72.1695
11
51.3713
21
-72.2189
0
LINE
8
BLACK
6
CONTINUOUS
10
51.5028
20
-72.1171
11
51.4417
21
-72.1695
0
LINE
8
BLACK
6
CONTINUOUS
10
51.5623
20
-72.055
11
51.5028
21
-72.1171
0
LINE
8
BLACK
6
CONTINUOUS
10
51.6182
20
-71.9827
11
51.5623
21
-72.055
0
LINE
8
BLACK
6
CONTINUOUS
10
51.6635
20
-71.9095
11
51.6182
21
-71.9827
0
LINE
8
BLACK
6
CONTINUOUS
10
51.6989
20
-71.8372
11
51.6635
21
-71.9095
0
LINE
8
BLACK
6
CONTINUOUS
10
51.7291
20
-71.7567
11
51.6989
21
-71.8372
0
LINE
8
BLACK
6
CONTINUOUS
10
51.752
20
-71.6682
11
51.7291
21
-71.7567
0
LINE
8
BLACK
6
CONTINUOUS
10
51.7642
20
-71.5886
11
51.752
21
-71.6682
0
LINE
8
BLACK
6
CONTINUOUS
10
51.7688
20
-71.5027
11
51.7642
21
-71.5886
0
LINE
8
BLACK
6
CONTINUOUS
10
51.7642
20
-71.4114
11
51.7688
21
-71.5027
0
LINE
8
BLACK
6
CONTINUOUS
10
51.752
20
-71.3318
11
51.7642
21
-71.4114
0
LINE
8
BLACK
6
CONTINUOUS
10
51.7307
20
-71.2485
11
51.752
21
-71.3318
0
LINE
8
BLACK
6
CONTINUOUS
10
51.6989
20
-71.1628
11
51.7307
21
-71.2485
0
LINE
8
BLACK
6
CONTINUOUS
10
51.6608
20
-71.0857
11
51.6989
21
-71.1628
0
LINE
8
BLACK
6
CONTINUOUS
10
51.6151
20
-71.0129
11
51.6608
21
-71.0857
0
LINE
8
BLACK
6
CONTINUOUS
10
51.5658
20
-70.9492
11
51.6151
21
-71.0129
0
LINE
8
BLACK
6
CONTINUOUS
10
51.5028
20
-70.8829
11
51.5658
21
-70.9492
0
LINE
8
BLACK
6
CONTINUOUS
10
51.4417
20
-70.8305
11
51.5028
21
-70.8829
0
LINE
8
BLACK
6
CONTINUOUS
10
51.3713
20
-70.7811
11
51.4417
21
-70.8305
0
LINE
8
BLACK
6
CONTINUOUS
10
51.2914
20
-70.7367
11
51.3713
21
-70.7811
0
LINE
8
BLACK
6
CONTINUOUS
10
51.2174
20
-70.705
11
51.2914
21
-70.7367
0
LINE
8
BLACK
6
CONTINUOUS
10
51.1354
20
-70.679
11
51.2174
21
-70.705
0
LINE
8
BLACK
6
CONTINUOUS
10
51.0512
20
-70.6614
11
51.1354
21
-70.679
0
LINE
8
BLACK
6
CONTINUOUS
10
50.9657
20
-70.6524
11
51.0512
21
-70.6614
0
LINE
8
BLACK
6
CONTINUOUS
10
50.8998
20
-70.6501
11
50.9657
21
-70.6524
0
LINE
8
BLACK
6
CONTINUOUS
10
50.0102
20
-70.6501
11
50.8998
21
-70.6501
0
LINE
8
BLACK
6
CONTINUOUS
10
50.002
20
-70.6471
11
50.0102
21
-70.6501
0
LINE
8
BLACK
6
CONTINUOUS
10
49.999
20
-70.6399
11
50.002
21
-70.6471
0
LINE
8
BLACK
6
CONTINUOUS
10
49.999
20
-50.5053
11
49.999
21
-70.6399
0
LINE
8
BLACK
6
CONTINUOUS
10
50.002
20
-50.4479
11
49.999
21
-50.5053
0
LINE
8
BLACK
6
CONTINUOUS
10
50.0102
20
-50.3961
11
50.002
21
-50.4479
0
LINE
8
BLACK
6
CONTINUOUS
10
50.0273
20
-50.3354
11
50.0102
21
-50.3961
0
LINE
8
BLACK
6
CONTINUOUS
10
50.0427
20
-50.2961
11
50.0273
21
-50.3354
0
LINE
8
BLACK
6
CONTINUOUS
10
50.0662
20
-50.2498
11
50.0427
21
-50.2961
0
LINE
8
BLACK
6
CONTINUOUS
10
50.1013
20
-50.1973
11
50.0662
21
-50.2498
0
LINE
8
BLACK
6
CONTINUOUS
10
50.1281
20
-50.1647
11
50.1013
21
-50.1973
0
LINE
8
BLACK
6
CONTINUOUS
10
50.1648
20
-50.128
11
50.1281
21
-50.1647
0
LINE
8
BLACK
6
CONTINUOUS
10
50.2143
20
-50.089
11
50.1648
21
-50.128
0
LINE
8
BLACK
6
CONTINUOUS
10
50.2499
20
-50.0662
11
50.2143
21
-50.089
0
LINE
8
BLACK
6
CONTINUOUS
10
50.2961
20
-50.0427
11
50.2499
21
-50.0662
0
LINE
8
BLACK
6
CONTINUOUS
10
50.3553
20
-50.0208
11
50.2961
21
-50.0427
0
LINE
8
BLACK
6
CONTINUOUS
10
50.3962
20
-50.0102
11
50.3553
21
-50.0208
0
LINE
8
BLACK
6
CONTINUOUS
10
50.4474
20
-50.002
11
50.3962
21
-50.0102
0
LINE
8
BLACK
6
CONTINUOUS
10
50.5052
20
-49.999
11
50.4474
21
-50.002
0
LINE
8
BLACK
6
CONTINUOUS
10
53.7088
20
-49.999
11
50.5052
21
-49.999
0
LINE
8
BLACK
6
CONTINUOUS
10
53.7864
20
-49.9952
11
53.7088
21
-49.999
0
LINE
8
BLACK
6
CONTINUOUS
10
53.8631
20
-49.9838
11
53.7864
21
-49.9952
0
LINE
8
BLACK
6
CONTINUOUS
10
53.9383
20
-49.965
11
53.8631
21
-49.9838
0
LINE
8
BLACK
6
CONTINUOUS
10
54.0113
20
-49.9389
11
53.9383
21
-49.965
0
LINE
8
BLACK
6
CONTINUOUS
10
54.0814
20
-49.9057
11
54.0113
21
-49.9389
0
LINE
8
BLACK
6
CONTINUOUS
10
54.1479
20
-49.8659
11
54.0814
21
-49.9057
0
LINE
8
BLACK
6
CONTINUOUS
10
54.2102
20
-49.8197
11
54.1479
21
-49.8659
0
LINE
8
BLACK
6
CONTINUOUS
10
54.2676
20
-49.7676
11
54.2102
21
-49.8197
0
LINE
8
BLACK
6
CONTINUOUS
10
54.3197
20
-49.7102
11
54.2676
21
-49.7676
0
LINE
8
BLACK
6
CONTINUOUS
10
54.3659
20
-49.6479
11
54.3197
21
-49.7102
0
LINE
8
BLACK
6
CONTINUOUS
10
54.4057
20
-49.5814
11
54.3659
21
-49.6479
0
LINE
8
BLACK
6
CONTINUOUS
10
54.4389
20
-49.5113
11
54.4057
21
-49.5814
0
LINE
8
BLACK
6
CONTINUOUS
10
54.465
20
-49.4383
11
54.4389
21
-49.5113
0
LINE
8
BLACK
6
CONTINUOUS
10
54.4838
20
-49.3631
11
54.465
21
-49.4383
0
LINE
8
BLACK
6
CONTINUOUS
10
54.4952
20
-49.2864
11
54.4838
21
-49.3631
0
LINE
8
BLACK
6
CONTINUOUS
10
54.499
20
-49.2088
11
54.4952
21
-49.2864
0
LINE
8
BLACK
6
CONTINUOUS
10
54.499
20
-47.7902
11
54.499
21
-49.2088
0
LINE
8
BLACK
6
CONTINUOUS
10
54.4952
20
-47.7126
11
54.499
21
-47.7902
0
LINE
8
BLACK
6
CONTINUOUS
10
54.4838
20
-47.6359
11
54.4952
21
-47.7126
0
LINE
8
BLACK
6
CONTINUOUS
10
54.465
20
-47.5607
11
54.4838
21
-47.6359
0
LINE
8
BLACK
6
CONTINUOUS
10
54.4389
20
-47.4877
11
54.465
21
-47.5607
0
LINE
8
BLACK
6
CONTINUOUS
10
54.4057
20
-47.4176
11
54.4389
21
-47.4877
0
LINE
8
BLACK
6
CONTINUOUS
10
54.3659
20
-47.3511
11
54.4057
21
-47.4176
0
LINE
8
BLACK
6
CONTINUOUS
10
54.3197
20
-47.2888
11
54.3659
21
-47.3511
0
LINE
8
BLACK
6
CONTINUOUS
10
54.2676
20
-47.2314
11
54.3197
21
-47.2888
0
LINE
8
BLACK
6
CONTINUOUS
10
54.2102
20
-47.1793
11
54.2676
21
-47.2314
0
LINE
8
BLACK
6
CONTINUOUS
10
54.1479
20
-47.1331
11
54.2102
21
-47.1793
0
LINE
8
BLACK
6
CONTINUOUS
10
54.0814
20
-47.0933
11
54.1479
21
-47.1331
0
LINE
8
BLACK
6
CONTINUOUS
10
54.0113
20
-47.0601
11
54.0814
21
-47.0933
0
LINE
8
BLACK
6
CONTINUOUS
10
53.9383
20
-47.034
11
54.0113
21
-47.0601
0
LINE
8
BLACK
6
CONTINUOUS
10
53.8631
20
-47.0152
11
53.9383
21
-47.034
0
LINE
8
BLACK
6
CONTINUOUS
10
53.7864
20
-47.0038
11
53.8631
21
-47.0152
0
LINE
8
BLACK
6
CONTINUOUS
10
53.7088
20
-47
11
53.7864
21
-47.0038
0
LINE
8
BLACK
6
CONTINUOUS
10
50.0186
20
-47
11
53.7088
21
-47
0
LINE
8
BLACK
6
CONTINUOUS
10
50.007
20
-46.9992
11
50.0186
21
-47
0
LINE
8
BLACK
6
CONTINUOUS
10
50.0009
20
-46.9947
11
50.007
21
-46.9992
0
LINE
8
BLACK
6
CONTINUOUS
10
49.999
20
-46.9804
11
50.0009
21
-46.9947
0
LINE
8
BLACK
6
CONTINUOUS
10
49.999
20
-42.0186
11
49.999
21
-46.9804
0
LINE
8
BLACK
6
CONTINUOUS
10
49.9996
20
-42.008
11
49.999
21
-42.0186
0
LINE
8
BLACK
6
CONTINUOUS
10
50.002
20
-42.0027
11
49.9996
21
-42.008
0
LINE
8
BLACK
6
CONTINUOUS
10
50.007
20
-41.9998
11
50.002
21
-42.0027
0
LINE
8
BLACK
6
CONTINUOUS
10
50.0186
20
-41.999
11
50.007
21
-41.9998
0
LINE
8
BLACK
6
CONTINUOUS
10
76.9814
20
-41.999
11
50.0186
21
-41.999
0
LINE
8
BLACK
6
CONTINUOUS
10
76.992
20
-41.9996
11
76.9814
21
-41.999
0
LINE
8
BLACK
6
CONTINUOUS
10
76.9973
20
-42.002
11
76.992
21
-41.9996
0
LINE
8
BLACK
6
CONTINUOUS
10
77.0003
20
-42.007
11
76.9973
21
-42.002
0
LINE
8
BLACK
6
CONTINUOUS
10
77.001
20
-42.0186
11
77.0003
21
-42.007
0
LINE
8
BLACK
6
CONTINUOUS
10
77.001
20
-46.9804
11
77.001
21
-42.0186
0
LINE
8
BLACK
6
CONTINUOUS
10
76.9991
20
-46.9947
11
77.001
21
-46.9804
0
LINE
8
BLACK
6
CONTINUOUS
10
76.993
20
-46.9992
11
76.9991
21
-46.9947
0
LINE
8
BLACK
6
CONTINUOUS
10
76.9814
20
-47
11
76.993
21
-46.9992
0
LINE
8
BLACK
6
CONTINUOUS
10
73.2913
20
-47
11
76.9814
21
-47
0
LINE
8
BLACK
6
CONTINUOUS
10
73.2136
20
-47.0038
11
73.2913
21
-47
0
LINE
8
BLACK
6
CONTINUOUS
10
73.1369
20
-47.0152
11
73.2136
21
-47.0038
0
LINE
8
BLACK
6
CONTINUOUS
10
73.0617
20
-47.034
11
73.1369
21
-47.0152
0
LINE
8
BLACK
6
CONTINUOUS
10
72.9887
20
-47.0601
11
73.0617
21
-47.034
0
LINE
8
BLACK
6
CONTINUOUS
10
72.9186
20
-47.0933
11
72.9887
21
-47.0601
0
LINE
8
BLACK
6
CONTINUOUS
10
72.8521
20
-47.1331
11
72.9186
21
-47.0933
0
LINE
8
BLACK
6
CONTINUOUS
10
72.7899
20
-47.1793
11
72.8521
21
-47.1331
0
LINE
8
BLACK
6
CONTINUOUS
10
72.7324
20
-47.2314
11
72.7899
21
-47.1793
0
LINE
8
BLACK
6
CONTINUOUS
10
72.6804
20
-47.2888
11
72.7324
21
-47.2314
0
LINE
8
BLACK
6
CONTINUOUS
10
72.6342
20
-47.3511
11
72.6804
21
-47.2888
0
LINE
8
BLACK
6
CONTINUOUS
10
72.5943
20
-47.4176
11
72.6342
21
-47.3511
0
LINE
8
BLACK
6
CONTINUOUS
10
72.5612
20
-47.4877
11
72.5943
21
-47.4176
0
LINE
8
BLACK
6
CONTINUOUS
10
72.5351
20
-47.5607
11
72.5612
21
-47.4877
0
LINE
8
BLACK
6
CONTINUOUS
10
72.5162
20
-47.6359
11
72.5351
21
-47.5607
0
LINE
8
BLACK
6
CONTINUOUS
10
72.5048
20
-47.7126
11
72.5162
21
-47.6359
0
LINE
8
BLACK
6
CONTINUOUS
10
72.501
20
-47.7902
11
72.5048
21
-47.7126
0
LINE
8
BLACK
6
CONTINUOUS
10
72.501
20
-49.2088
11
72.501
21
-47.7902
0
LINE
8
BLACK
6
CONTINUOUS
10
72.5048
20
-49.2864
11
72.501
21
-49.2088
0
LINE
8
BLACK
6
CONTINUOUS
10
72.5162
20
-49.3631
11
72.5048
21
-49.2864
0
LINE
8
BLACK
6
CONTINUOUS
10
72.5351
20
-49.4383
11
72.5162
21
-49.3631
0
LINE
8
BLACK
6
CONTINUOUS
10
72.5612
20
-49.5113
11
72.5351
21
-49.4383
0
LINE
8
BLACK
6
CONTINUOUS
10
72.5943
20
-49.5814
11
72.5612
21
-49.5113
0
LINE
8
BLACK
6
CONTINUOUS
10
72.6342
20
-49.6479
11
72.5943
21
-49.5814
0
LINE
8
BLACK
6
CONTINUOUS
10
72.6804
20
-49.7102
11
72.6342
21
-49.6479
0
LINE
8
BLACK
6
CONTINUOUS
10
72.7324
20
-49.7676
11
72.6804
21
-49.7102
0
LINE
8
BLACK
6
CONTINUOUS
10
72.7899
20
-49.8197
11
72.7324
21
-49.7676
0
LINE
8
BLACK
6
CONTINUOUS
10
72.8521
20
-49.8659
11
72.7899
21
-49.8197
0
LINE
8
BLACK
6
CONTINUOUS
10
72.9186
20
-49.9057
11
72.8521
21
-49.8659
0
LINE
8
BLACK
6
CONTINUOUS
10
72.9887
20
-49.9389
11
72.9186
21
-49.9057
0
LINE
8
BLACK
6
CONTINUOUS
10
73.0617
20
-49.965
11
72.9887
21
-49.9389
0
LINE
8
BLACK
6
CONTINUOUS
10
73.1369
20
-49.9838
11
73.0617
21
-49.965
0
LINE
8
BLACK
6
CONTINUOUS
10
73.2136
20
-49.9952
11
73.1369
21
-49.9838
0
LINE
8
BLACK
6
CONTINUOUS
10
73.2913
20
-49.999
11
73.2136
21
-49.9952
0
LINE
8
BLACK
6
CONTINUOUS
10
76.4948
20
-49.999
11
73.2913
21
-49.999
0
LINE
8
BLACK
6
CONTINUOUS
10
76.5526
20
-50.0021
11
76.4948
21
-49.999
0
LINE
8
BLACK
6
CONTINUOUS
10
76.6039
20
-50.0102
11
76.5526
21
-50.0021
0
LINE
8
BLACK
6
CONTINUOUS
10
76.6446
20
-50.0208
11
76.6039
21
-50.0102
0
LINE
8
BLACK
6
CONTINUOUS
10
76.6647
20
-50.0273
11
76.6446
21
-50.0208
0
LINE
8
BLACK
6
CONTINUOUS
10
76.7132
20
-50.0471
11
76.6647
21
-50.0273
0
LINE
8
BLACK
6
CONTINUOUS
10
76.7506
20
-50.0665
11
76.7132
21
-50.0471
0
LINE
8
BLACK
6
CONTINUOUS
10
76.7941
20
-50.0948
11
76.7506
21
-50.0665
0
LINE
8
BLACK
6
CONTINUOUS
10
76.8349
20
-50.1277
11
76.7941
21
-50.0948
0
LINE
8
BLACK
6
CONTINUOUS
10
76.8649
20
-50.1573
11
76.8349
21
-50.1277
0
LINE
8
BLACK
6
CONTINUOUS
10
76.879
20
-50.1729
11
76.8649
21
-50.1573
0
LINE
8
BLACK
6
CONTINUOUS
10
76.9111
20
-50.2143
11
76.879
21
-50.1729
0
LINE
8
BLACK
6
CONTINUOUS
10
76.9338
20
-50.2499
11
76.9111
21
-50.2143
0
LINE
8
BLACK
6
CONTINUOUS
10
76.9574
20
-50.2961
11
76.9338
21
-50.2499
0
LINE
8
BLACK
6
CONTINUOUS
10
76.9792
20
-50.3553
11
76.9574
21
-50.2961
0
LINE
8
BLACK
6
CONTINUOUS
10
76.9899
20
-50.3962
11
76.9792
21
-50.3553
0
LINE
8
BLACK
6
CONTINUOUS
10
76.998
20
-50.4474
11
76.9899
21
-50.3962
0
LINE
8
BLACK
6
CONTINUOUS
10
77.001
20
-50.5052
11
76.998
21
-50.4474
0
LINE
8
BLACK
6
CONTINUOUS
10
77.001
20
-70.6399
11
77.001
21
-50.5052
0
LINE
8
BLACK
6
CONTINUOUS
10
76.998
20
-70.6471
11
77.001
21
-70.6399
0
LINE
8
BLACK
6
CONTINUOUS
10
76.9898
20
-70.6501
11
76.998
21
-70.6471
0
LINE
8
BLACK
6
CONTINUOUS
10
76.1002
20
-70.6501
11
76.9898
21
-70.6501
0
LINE
8
BLACK
6
CONTINUOUS
10
76.0343
20
-70.6524
11
76.1002
21
-70.6501
0
LINE
8
BLACK
6
CONTINUOUS
10
75.9488
20
-70.6614
11
76.0343
21
-70.6524
0
LINE
8
BLACK
6
CONTINUOUS
10
75.8646
20
-70.679
11
75.9488
21
-70.6614
0
LINE
8
BLACK
6
CONTINUOUS
10
75.7827
20
-70.705
11
75.8646
21
-70.679
0
LINE
8
BLACK
6
CONTINUOUS
10
75.7087
20
-70.7367
11
75.7827
21
-70.705
0
LINE
8
BLACK
6
CONTINUOUS
10
75.6287
20
-70.7811
11
75.7087
21
-70.7367
0
LINE
8
BLACK
6
CONTINUOUS
10
75.5626
20
-70.8271
11
75.6287
21
-70.7811
0
LINE
8
BLACK
6
CONTINUOUS
10
75.4972
20
-70.8829
11
75.5626
21
-70.8271
0
LINE
8
BLACK
6
CONTINUOUS
10
75.4342
20
-70.9492
11
75.4972
21
-70.8829
0
LINE
8
BLACK
6
CONTINUOUS
10
75.3849
20
-71.0129
11
75.4342
21
-70.9492
0
LINE
8
BLACK
6
CONTINUOUS
10
75.3392
20
-71.0857
11
75.3849
21
-71.0129
0
LINE
8
BLACK
6
CONTINUOUS
10
75.2989
20
-71.1678
11
75.3392
21
-71.0857
0
LINE
8
BLACK
6
CONTINUOUS
10
75.2693
20
-71.2485
11
75.2989
21
-71.1678
0
LINE
8
BLACK
6
CONTINUOUS
10
75.2491
20
-71.3265
11
75.2693
21
-71.2485
0
LINE
8
BLACK
6
CONTINUOUS
10
75.2358
20
-71.4114
11
75.2491
21
-71.3265
0
LINE
8
BLACK
6
CONTINUOUS
10
75.2312
20
-71.5027
11
75.2358
21
-71.4114
0
LINE
8
BLACK
6
CONTINUOUS
10
75.2358
20
-71.5886
11
75.2312
21
-71.5027
0
LINE
8
BLACK
6
CONTINUOUS
10
75.248
20
-71.6682
11
75.2358
21
-71.5886
0
LINE
8
BLACK
6
CONTINUOUS
10
75.2693
20
-71.7515
11
75.248
21
-71.6682
0
LINE
8
BLACK
6
CONTINUOUS
10
75.3011
20
-71.8372
11
75.2693
21
-71.7515
0
LINE
8
BLACK
6
CONTINUOUS
10
75.3365
20
-71.9095
11
75.3011
21
-71.8372
0
LINE
8
BLACK
6
CONTINUOUS
10
75.3818
20
-71.9827
11
75.3365
21
-71.9095
0
LINE
8
BLACK
6
CONTINUOUS
10
75.4378
20
-72.055
11
75.3818
21
-71.9827
0
LINE
8
BLACK
6
CONTINUOUS
10
75.4972
20
-72.1171
11
75.4378
21
-72.055
0
LINE
8
BLACK
6
CONTINUOUS
10
75.5626
20
-72.1729
11
75.4972
21
-72.1171
0
LINE
8
BLACK
6
CONTINUOUS
10
75.6287
20
-72.2189
11
75.5626
21
-72.1729
0
LINE
8
BLACK
6
CONTINUOUS
10
75.7087
20
-72.2633
11
75.6287
21
-72.2189
0
LINE
8
BLACK
6
CONTINUOUS
10
75.7878
20
-72.2969
11
75.7087
21
-72.2633
0
LINE
8
BLACK
6
CONTINUOUS
10
75.8699
20
-72.3224
11
75.7878
21
-72.2969
0
LINE
8
BLACK
6
CONTINUOUS
10
75.9542
20
-72.3394
11
75.8699
21
-72.3224
0
LINE
8
BLACK
6
CONTINUOUS
10
76.0343
20
-72.3476
11
75.9542
21
-72.3394
0
LINE
8
BLACK
6
CONTINUOUS
10
76.1002
20
-72.3499
11
76.0343
21
-72.3476
0
LINE
8
BLACK
6
CONTINUOUS
10
76.9898
20
-72.3499
11
76.1002
21
-72.3499
0
LINE
8
BLACK
6
CONTINUOUS
10
76.9972
20
-72.3523
11
76.9898
21
-72.3499
0
LINE
8
BLACK
6
CONTINUOUS
10
77.0008
20
-72.359
11
76.9972
21
-72.3523
0
LINE
8
BLACK
6
CONTINUOUS
10
77.001
20
-86.4948
11
77.0008
21
-72.359
0
LINE
8
BLACK
6
CONTINUOUS
10
76.998
20
-86.5521
11
77.001
21
-86.4948
0
LINE
8
BLACK
6
CONTINUOUS
10
76.9898
20
-86.6039
11
76.998
21
-86.5521
0
LINE
8
BLACK
6
CONTINUOUS
10
76.9792
20
-86.6446
11
76.9898
21
-86.6039
0
LINE
8
BLACK
6
CONTINUOUS
10
76.9573
20
-86.7039
11
76.9792
21
-86.6446
0
LINE
8
BLACK
6
CONTINUOUS
10
76.9338
20
-86.7502
11
76.9573
21
-86.7039
0
LINE
8
BLACK
6
CONTINUOUS
10
76.9111
20
-86.7856
11
76.9338
21
-86.7502
0
LINE
8
BLACK
6
CONTINUOUS
10
76.8987
20
-86.8027
11
76.9111
21
-86.7856
0
LINE
8
BLACK
6
CONTINUOUS
10
76.8649
20
-86.8427
11
76.8987
21
-86.8027
0
LINE
8
BLACK
6
CONTINUOUS
10
76.8349
20
-86.8723
11
76.8649
21
-86.8427
0
LINE
8
BLACK
6
CONTINUOUS
10
76.7945
20
-86.905
11
76.8349
21
-86.8723
0
LINE
8
BLACK
6
CONTINUOUS
10
76.7506
20
-86.9335
11
76.7945
21
-86.905
0
LINE
8
BLACK
6
CONTINUOUS
10
76.7132
20
-86.9529
11
76.7506
21
-86.9335
0
LINE
8
BLACK
6
CONTINUOUS
10
76.694
20
-86.9615
11
76.7132
21
-86.9529
0
LINE
8
BLACK
6
CONTINUOUS
10
76.6449
20
-86.9791
11
76.694
21
-86.9615
0
LINE
8
BLACK
6
CONTINUOUS
10
76.6044
20
-86.9897
11
76.6449
21
-86.9791
0
LINE
8
BLACK
6
CONTINUOUS
10
76.5626
20
-86.9966
11
76.6044
21
-86.9897
0
LINE
8
BLACK
6
CONTINUOUS
10
76.4948
20
-87.001
11
76.5626
21
-86.9966
0
LINE
8
BLACK
6
CONTINUOUS
10
73.2913
20
-87.001
11
76.4948
21
-87.001
0
LINE
8
BLACK
6
CONTINUOUS
10
73.2136
20
-87.0048
11
73.2913
21
-87.001
0
LINE
8
BLACK
6
CONTINUOUS
10
73.1369
20
-87.0162
11
73.2136
21
-87.0048
0
LINE
8
BLACK
6
CONTINUOUS
10
73.0617
20
-87.035
11
73.1369
21
-87.0162
0
LINE
8
BLACK
6
CONTINUOUS
10
72.9887
20
-87.0611
11
73.0617
21
-87.035
0
LINE
8
BLACK
6
CONTINUOUS
10
72.9186
20
-87.0943
11
72.9887
21
-87.0611
0
LINE
8
BLACK
6
CONTINUOUS
10
72.8521
20
-87.1341
11
72.9186
21
-87.0943
0
LINE
8
BLACK
6
CONTINUOUS
10
72.7899
20
-87.1803
11
72.8521
21
-87.1341
0
LINE
8
BLACK
6
CONTINUOUS
10
72.7324
20
-87.2324
11
72.7899
21
-87.1803
0
LINE
8
BLACK
6
CONTINUOUS
10
72.6804
20
-87.2898
11
72.7324
21
-87.2324
0
LINE
8
BLACK
6
CONTINUOUS
10
72.6342
20
-87.3521
11
72.6804
21
-87.2898
0
LINE
8
BLACK
6
CONTINUOUS
10
72.5943
20
-87.4186
11
72.6342
21
-87.3521
0
LINE
8
BLACK
6
CONTINUOUS
10
72.5612
20
-87.4887
11
72.5943
21
-87.4186
0
LINE
8
BLACK
6
CONTINUOUS
10
72.5351
20
-87.5617
11
72.5612
21
-87.4887
0
LINE
8
BLACK
6
CONTINUOUS
10
72.5162
20
-87.6369
11
72.5351
21
-87.5617
0
LINE
8
BLACK
6
CONTINUOUS
10
72.5048
20
-87.7136
11
72.5162
21
-87.6369
0
LINE
8
BLACK
6
CONTINUOUS
10
72.501
20
-87.7912
11
72.5048
21
-87.7136
0
LINE
8
BLACK
6
CONTINUOUS
10
72.501
20
-89.2098
11
72.501
21
-87.7912
0
LINE
8
BLACK
6
CONTINUOUS
10
72.5048
20
-89.2874
11
72.501
21
-89.2098
0
LINE
8
BLACK
6
CONTINUOUS
10
72.5162
20
-89.3641
11
72.5048
21
-89.2874
0
LINE
8
BLACK
6
CONTINUOUS
10
72.5351
20
-89.4393
11
72.5162
21
-89.3641
0
LINE
8
BLACK
6
CONTINUOUS
10
72.5612
20
-89.5123
11
72.5351
21
-89.4393
0
LINE
8
BLACK
6
CONTINUOUS
10
72.5943
20
-89.5824
11
72.5612
21
-89.5123
0
LINE
8
BLACK
6
CONTINUOUS
10
72.6342
20
-89.6489
11
72.5943
21
-89.5824
0
LINE
8
BLACK
6
CONTINUOUS
10
72.6804
20
-89.7112
11
72.6342
21
-89.6489
0
LINE
8
BLACK
6
CONTINUOUS
10
72.7324
20
-89.7686
11
72.6804
21
-89.7112
0
LINE
8
BLACK
6
CONTINUOUS
10
72.7899
20
-89.8207
11
72.7324
21
-89.7686
0
LINE
8
BLACK
6
CONTINUOUS
10
72.8521
20
-89.8669
11
72.7899
21
-89.8207
0
LINE
8
BLACK
6
CONTINUOUS
10
72.9186
20
-89.9067
11
72.8521
21
-89.8669
0
LINE
8
BLACK
6
CONTINUOUS
10
72.9887
20
-89.9399
11
72.9186
21
-89.9067
0
LINE
8
BLACK
6
CONTINUOUS
10
73.0617
20
-89.966
11
72.9887
21
-89.9399
0
LINE
8
BLACK
6
CONTINUOUS
10
73.1369
20
-89.9848
11
73.0617
21
-89.966
0
LINE
8
BLACK
6
CONTINUOUS
10
73.2136
20
-89.9962
11
73.1369
21
-89.9848
0
LINE
8
BLACK
6
CONTINUOUS
10
73.2913
20
-90
11
73.2136
21
-89.9962
0
LINE
8
BLACK
6
CONTINUOUS
10
76.9814
20
-90
11
73.2913
21
-90
0
LINE
8
BLACK
6
CONTINUOUS
10
76.993
20
-90.0008
11
76.9814
21
-90
0
LINE
8
BLACK
6
CONTINUOUS
10
76.9986
20
-90.0045
11
76.993
21
-90.0008
0
LINE
8
BLACK
6
CONTINUOUS
10
77.0005
20
-90.009
11
76.9986
21
-90.0045
0
LINE
8
BLACK
6
CONTINUOUS
10
77.001
20
-90.0197
11
77.0005
21
-90.009
0
LINE
8
BLACK
6
CONTINUOUS
10
77.001
20
-94.9814
11
77.001
21
-90.0197
0
LINE
8
BLACK
6
CONTINUOUS
10
77.0005
20
-94.992
11
77.001
21
-94.9814
0
LINE
8
BLACK
6
CONTINUOUS
10
76.998
20
-94.9973
11
77.0005
21
-94.992
0
LINE
8
BLACK
6
CONTINUOUS
10
76.993
20
-95.0003
11
76.998
21
-94.9973
0
LINE
8
BLACK
6
CONTINUOUS
10
76.9814
20
-95.001
11
76.993
21
-95.0003
0
LINE
8
BLACK
6
CONTINUOUS
10
50.0186
20
-95.001
11
76.9814
21
-95.001
0
LINE
8
BLACK
6
CONTINUOUS
10
50.008
20
-95.0005
11
50.0186
21
-95.001
0
LINE
8
BLACK
6
CONTINUOUS
10
50.0027
20
-94.998
11
50.008
21
-95.0005
0
LINE
8
BLACK
6
CONTINUOUS
10
49.9998
20
-94.993
11
50.0027
21
-94.998
0
LINE
8
BLACK
6
CONTINUOUS
10
49.999
20
-94.9814
11
49.9998
21
-94.993
0
LINE
8
BLACK
6
CONTINUOUS
10
49.999
20
-90.0197
11
49.999
21
-94.9814
0
LINE
8
BLACK
6
CONTINUOUS
10
50.0009
20
-90.0053
11
49.999
21
-90.0197
0
LINE
8
BLACK
6
CONTINUOUS
10
50.007
20
-90.0008
11
50.0009
21
-90.0053
0
LINE
8
BLACK
6
CONTINUOUS
10
50.0186
20
-90
11
50.007
21
-90.0008
0
LINE
8
BLACK
6
CONTINUOUS
10
53.7088
20
-90
11
50.0186
21
-90
0
LINE
8
BLACK
6
CONTINUOUS
10
53.7864
20
-89.9962
11
53.7088
21
-90
0
LINE
8
BLACK
6
CONTINUOUS
10
53.8631
20
-89.9848
11
53.7864
21
-89.9962
0
LINE
8
BLACK
6
CONTINUOUS
10
53.9383
20
-89.966
11
53.8631
21
-89.9848
0
LINE
8
BLACK
6
CONTINUOUS
10
54.0113
20
-89.9399
11
53.9383
21
-89.966
0
LINE
8
BLACK
6
CONTINUOUS
10
54.0814
20
-89.9067
11
54.0113
21
-89.9399
0
LINE
8
BLACK
6
CONTINUOUS
10
54.1479
20
-89.8669
11
54.0814
21
-89.9067
0
LINE
8
BLACK
6
CONTINUOUS
10
54.2102
20
-89.8207
11
54.1479
21
-89.8669
0
LINE
8
BLACK
6
CONTINUOUS
10
54.2676
20
-89.7686
11
54.2102
21
-89.8207
0
LINE
8
BLACK
6
CONTINUOUS
10
54.3197
20
-89.7112
11
54.2676
21
-89.7686
0
LINE
8
BLACK
6
CONTINUOUS
10
54.3659
20
-89.6489
11
54.3197
21
-89.7112
0
LINE
8
BLACK
6
CONTINUOUS
10
54.4057
20
-89.5824
11
54.3659
21
-89.6489
0
LINE
8
BLACK
6
CONTINUOUS
10
54.4389
20
-89.5123
11
54.4057
21
-89.5824
0
LINE
8
BLACK
6
CONTINUOUS
10
54.465
20
-89.4393
11
54.4389
21
-89.5123
0
LINE
8
BLACK
6
CONTINUOUS
10
54.4838
20
-89.3641
11
54.465
21
-89.4393
0
LINE
8
BLACK
6
CONTINUOUS
10
54.4952
20
-89.2874
11
54.4838
21
-89.3641
0
LINE
8
BLACK
6
CONTINUOUS
10
54.499
20
-89.2098
11
54.4952
21
-89.2874
0
LINE
8
BLACK
6
CONTINUOUS
10
54.499
20
-87.7912
11
54.499
21
-89.2098
0
LINE
8
BLACK
6
CONTINUOUS
10
54.4952
20
-87.7136
11
54.499
21
-87.7912
0
LINE
8
BLACK
6
CONTINUOUS
10
54.4838
20
-87.6369
11
54.4952
21
-87.7136
0
LINE
8
BLACK
6
CONTINUOUS
10
54.465
20
-87.5617
11
54.4838
21
-87.6369
0
LINE
8
BLACK
6
CONTINUOUS
10
54.4389
20
-87.4887
11
54.465
21
-87.5617
0
LINE
8
BLACK
6
CONTINUOUS
10
54.4057
20
-87.4186
11
54.4389
21
-87.4887
0
LINE
8
BLACK
6
CONTINUOUS
10
54.3659
20
-87.3521
11
54.4057
21
-87.4186
0
LINE
8
BLACK
6
CONTINUOUS
10
54.3197
20
-87.2898
11
54.3659
21
-87.3521
0
LINE
8
BLACK
6
CONTINUOUS
10
54.2676
20
-87.2324
11
54.3197
21
-87.2898
0
LINE
8
BLACK
6
CONTINUOUS
10
54.2102
20
-87.1803
11
54.2676
21
-87.2324
0
LINE
8
BLACK
6
CONTINUOUS
10
54.1479
20
-87.1341
11
54.2102
21
-87.1803
0
LINE
8
BLACK
6
CONTINUOUS
10
54.0814
20
-87.0943
11
54.1479
21
-87.1341
0
LINE
8
BLACK
6
CONTINUOUS
10
54.0113
20
-87.0611
11
54.0814
21
-87.0943
0
LINE
8
BLACK
6
CONTINUOUS
10
53.9383
20
-87.035
11
54.0113
21
-87.0611
0
LINE
8
BLACK
6
CONTINUOUS
10
53.8631
20
-87.0162
11
53.9383
21
-87.035
0
LINE
8
BLACK
6
CONTINUOUS
10
53.7864
20
-87.0048
11
53.8631
21
-87.0162
0
LINE
8
BLACK
6
CONTINUOUS
10
53.7088
20
-87.001
11
53.7864
21
-87.0048
0
LINE
8
BLACK
6
CONTINUOUS
10
50.5053
20
-87.001
11
53.7088
21
-87.001
0
LINE
8
BLACK
6
CONTINUOUS
10
50.4479
20
-86.998
11
50.5053
21
-87.001
0
LINE
8
BLACK
6
CONTINUOUS
10
50.3857
20
-86.9873
11
50.4479
21
-86.998
0
LINE
8
BLACK
6
CONTINUOUS
10
50.345
20
-86.9761
11
50.3857
21
-86.9873
0
LINE
8
BLACK
6
CONTINUOUS
10
50.2966
20
-86.9575
11
50.345
21
-86.9761
0
LINE
8
BLACK
6
CONTINUOUS
10
50.2407
20
-86.9281
11
50.2966
21
-86.9575
0
LINE
8
BLACK
6
CONTINUOUS
10
50.2059
20
-86.9052
11
50.2407
21
-86.9281
0
LINE
8
BLACK
6
CONTINUOUS
10
50.173
20
-86.879
11
50.2059
21
-86.9052
0
LINE
8
BLACK
6
CONTINUOUS
10
50.128
20
-86.8352
11
50.173
21
-86.879
0
LINE
8
BLACK
6
CONTINUOUS
10
50.089
20
-86.7857
11
50.128
21
-86.8352
0
LINE
8
BLACK
6
CONTINUOUS
10
50.0662
20
-86.7501
11
50.089
21
-86.7857
0
LINE
8
BLACK
6
CONTINUOUS
10
50.047
20
-86.7129
11
50.0662
21
-86.7501
0
LINE
8
BLACK
6
CONTINUOUS
10
50.0385
20
-86.694
11
50.047
21
-86.7129
0
LINE
8
BLACK
6
CONTINUOUS
10
50.0209
20
-86.6449
11
50.0385
21
-86.694
0
LINE
8
BLACK
6
CONTINUOUS
10
50.0103
20
-86.6043
11
50.0209
21
-86.6449
0
LINE
8
BLACK
6
CONTINUOUS
10
50.0034
20
-86.5628
11
50.0103
21
-86.6043
0
LINE
8
BLACK
6
CONTINUOUS
10
49.999
20
-86.4948
11
50.0034
21
-86.5628
0
LINE
8
BLACK
6
CONTINUOUS
10
49.999
20
-72.3601
11
49.999
21
-86.4948
  0
ENDSEC
  0
EOF
