  0
SECTION
  2
HEADER
  9
$ANGBASE
  50
0.0
  9
$ANGDIR
  70
1
  9
$MEASUREMENT
  70
1
  0
ENDSEC
  0
SECTION
  2
TABLES
  0
TABLE
  2
LTYPE
  70
4
  0
LTYPE
  5
40F
  2
CONTINUOUS
  70
0
  3
Solid line
  72
65
  73
0
  40
0.0
  0
LTYPE
  5
410
  2
DASHDOT
 70
0
  3
Dash Dot ____ _ ____ _
 72
65
 73
4
 40
2.0
 49
1.25
 49
-0.25
 49
0.25
 49
-0.25
  0
LTYPE
  5
411
  2
DASHED
 70
0
  3
Dashed __ __ __ __ __
 72
65
 73
2
 40
0.75
 49
0.5
 49
-0.25
  0
LTYPE
  5
43B
  2
DOTTED
 70
0
  3
Dotted .  .  .  .
 72
65
 73
2
 40
0.2
 49
0.0
 49
-0.2
  0
ENDTAB
  0
TABLE
  2
STYLE
  70
4
  0
STYLE
  2
KICAD
  70
0
  40
0
  41
1
  42
1
  50
0
  71
0
  3
isocp.shx
  0
STYLE
  2
KICADB
  70
0
  40
0
  41
1
  42
1
  50
0
  71
0
  3
isocp.shx
  0
STYLE
  2
KICADI
  70
0
  40
0
  41
1
  42
1
  50
15
  71
0
  3
isocp.shx
  0
STYLE
  2
KICADBI
  70
0
  40
0
  41
1
  42
1
  50
15
  71
0
  3
isocp.shx
  0
ENDTAB
  0
TABLE
  2
LAYER
  70
1
  0
LAYER
  2
BLACK
  70
0
  62
7
  6
CONTINUOUS
  0
ENDTAB
  0
ENDSEC
  0
SECTION
  2
ENTITIES
0
LINE
8
BLACK
6
CONTINUOUS
10
70.65
20
-86.6
11
70.05
21
-86.6
0
LINE
8
BLACK
6
CONTINUOUS
10
70.05
20
-86.6
11
70.05
21
-86.2
0
LINE
8
BLACK
6
CONTINUOUS
10
70.05
20
-86.2
11
70.65
21
-86.2
0
LINE
8
BLACK
6
CONTINUOUS
10
70.65
20
-86.2
11
70.65
21
-86.6
0
LINE
8
BLACK
6
CONTINUOUS
10
71.95
20
-86.6
11
71.35
21
-86.6
0
LINE
8
BLACK
6
CONTINUOUS
10
71.35
20
-86.6
11
71.35
21
-86.2
0
LINE
8
BLACK
6
CONTINUOUS
10
71.35
20
-86.2
11
71.95
21
-86.2
0
LINE
8
BLACK
6
CONTINUOUS
10
71.95
20
-86.2
11
71.95
21
-86.6
0
LINE
8
BLACK
6
CONTINUOUS
10
56.95
20
-86.6
11
56.35
21
-86.6
0
LINE
8
BLACK
6
CONTINUOUS
10
56.35
20
-86.6
11
56.35
21
-86.2
0
LINE
8
BLACK
6
CONTINUOUS
10
56.35
20
-86.2
11
56.95
21
-86.2
0
LINE
8
BLACK
6
CONTINUOUS
10
56.95
20
-86.2
11
56.95
21
-86.6
0
LINE
8
BLACK
6
CONTINUOUS
10
55.65
20
-86.6
11
55.05
21
-86.6
0
LINE
8
BLACK
6
CONTINUOUS
10
55.05
20
-86.6
11
55.05
21
-86.2
0
LINE
8
BLACK
6
CONTINUOUS
10
55.05
20
-86.2
11
55.65
21
-86.2
0
LINE
8
BLACK
6
CONTINUOUS
10
55.65
20
-86.2
11
55.65
21
-86.6
0
LINE
8
BLACK
6
CONTINUOUS
10
55.65
20
-85.8
11
55.05
21
-85.8
0
LINE
8
BLACK
6
CONTINUOUS
10
55.05
20
-85.8
11
55.05
21
-85.4
0
LINE
8
BLACK
6
CONTINUOUS
10
55.05
20
-85.4
11
55.65
21
-85.4
0
LINE
8
BLACK
6
CONTINUOUS
10
55.65
20
-85.4
11
55.65
21
-85.8
0
LINE
8
BLACK
6
CONTINUOUS
10
71.95
20
-85.8
11
71.35
21
-85.8
0
LINE
8
BLACK
6
CONTINUOUS
10
71.35
20
-85.8
11
71.35
21
-85.4
0
LINE
8
BLACK
6
CONTINUOUS
10
71.35
20
-85.4
11
71.95
21
-85.4
0
LINE
8
BLACK
6
CONTINUOUS
10
71.95
20
-85.4
11
71.95
21
-85.8
0
LINE
8
BLACK
6
CONTINUOUS
10
70.65
20
-85.8
11
70.05
21
-85.8
0
LINE
8
BLACK
6
CONTINUOUS
10
70.05
20
-85.8
11
70.05
21
-85.4
0
LINE
8
BLACK
6
CONTINUOUS
10
70.05
20
-85.4
11
70.65
21
-85.4
0
LINE
8
BLACK
6
CONTINUOUS
10
70.65
20
-85.4
11
70.65
21
-85.8
0
LINE
8
BLACK
6
CONTINUOUS
10
56.95
20
-85.8
11
56.35
21
-85.8
0
LINE
8
BLACK
6
CONTINUOUS
10
56.35
20
-85.8
11
56.35
21
-85.4
0
LINE
8
BLACK
6
CONTINUOUS
10
56.35
20
-85.4
11
56.95
21
-85.4
0
LINE
8
BLACK
6
CONTINUOUS
10
56.95
20
-85.4
11
56.95
21
-85.8
0
LINE
8
BLACK
6
CONTINUOUS
10
58.1682
20
-84.472
11
58.1958
21
-84.4804
0
LINE
8
BLACK
6
CONTINUOUS
10
58.1958
20
-84.4804
11
58.2213
21
-84.494
0
LINE
8
BLACK
6
CONTINUOUS
10
58.2213
20
-84.494
11
58.2437
21
-84.5124
0
LINE
8
BLACK
6
CONTINUOUS
10
58.2437
20
-84.5124
11
58.4876
21
-84.7563
0
LINE
8
BLACK
6
CONTINUOUS
10
58.4876
20
-84.7563
11
58.506
21
-84.7787
0
LINE
8
BLACK
6
CONTINUOUS
10
58.506
20
-84.7787
11
58.5196
21
-84.8042
0
LINE
8
BLACK
6
CONTINUOUS
10
58.5196
20
-84.8042
11
58.528
21
-84.8319
0
LINE
8
BLACK
6
CONTINUOUS
10
58.528
20
-84.8319
11
58.5308
21
-84.8606
0
LINE
8
BLACK
6
CONTINUOUS
10
58.5308
20
-84.8606
11
58.528
21
-84.8894
0
LINE
8
BLACK
6
CONTINUOUS
10
58.528
20
-84.8894
11
58.5196
21
-84.9171
0
LINE
8
BLACK
6
CONTINUOUS
10
58.5196
20
-84.9171
11
58.506
21
-84.9426
0
LINE
8
BLACK
6
CONTINUOUS
10
58.506
20
-84.9426
11
58.4876
21
-84.9649
0
LINE
8
BLACK
6
CONTINUOUS
10
58.4876
20
-84.9649
11
58.279
21
-85.1735
0
LINE
8
BLACK
6
CONTINUOUS
10
58.279
20
-85.1735
11
58.2567
21
-85.1919
0
LINE
8
BLACK
6
CONTINUOUS
10
58.2567
20
-85.1919
11
58.2312
21
-85.2055
0
LINE
8
BLACK
6
CONTINUOUS
10
58.2312
20
-85.2055
11
58.2035
21
-85.2139
0
LINE
8
BLACK
6
CONTINUOUS
10
58.2035
20
-85.2139
11
58.1747
21
-85.2167
0
LINE
8
BLACK
6
CONTINUOUS
10
58.1747
20
-85.2167
11
58.146
21
-85.2139
0
LINE
8
BLACK
6
CONTINUOUS
10
58.146
20
-85.2139
11
58.1183
21
-85.2055
0
LINE
8
BLACK
6
CONTINUOUS
10
58.1183
20
-85.2055
11
58.0928
21
-85.1919
0
LINE
8
BLACK
6
CONTINUOUS
10
58.0928
20
-85.1919
11
58.0704
21
-85.1735
0
LINE
8
BLACK
6
CONTINUOUS
10
58.0704
20
-85.1735
11
57.8265
21
-84.9296
0
LINE
8
BLACK
6
CONTINUOUS
10
57.8265
20
-84.9296
11
57.8081
21
-84.9072
0
LINE
8
BLACK
6
CONTINUOUS
10
57.8081
20
-84.9072
11
57.7945
21
-84.8817
0
LINE
8
BLACK
6
CONTINUOUS
10
57.7945
20
-84.8817
11
57.7861
21
-84.854
0
LINE
8
BLACK
6
CONTINUOUS
10
57.7861
20
-84.854
11
57.7833
21
-84.8253
0
LINE
8
BLACK
6
CONTINUOUS
10
57.7833
20
-84.8253
11
57.7861
21
-84.7965
0
LINE
8
BLACK
6
CONTINUOUS
10
57.7861
20
-84.7965
11
57.7945
21
-84.7688
0
LINE
8
BLACK
6
CONTINUOUS
10
57.7945
20
-84.7688
11
57.8081
21
-84.7433
0
LINE
8
BLACK
6
CONTINUOUS
10
57.8081
20
-84.7433
11
57.8265
21
-84.721
0
LINE
8
BLACK
6
CONTINUOUS
10
57.8265
20
-84.721
11
58.0351
21
-84.5124
0
LINE
8
BLACK
6
CONTINUOUS
10
58.0351
20
-84.5124
11
58.0574
21
-84.494
0
LINE
8
BLACK
6
CONTINUOUS
10
58.0574
20
-84.494
11
58.0829
21
-84.4804
0
LINE
8
BLACK
6
CONTINUOUS
10
58.0829
20
-84.4804
11
58.1106
21
-84.472
0
LINE
8
BLACK
6
CONTINUOUS
10
58.1106
20
-84.472
11
58.1394
21
-84.4692
0
LINE
8
BLACK
6
CONTINUOUS
10
58.1394
20
-84.4692
11
58.1682
21
-84.472
0
LINE
8
BLACK
6
CONTINUOUS
10
73.1682
20
-84.472
11
73.1958
21
-84.4804
0
LINE
8
BLACK
6
CONTINUOUS
10
73.1958
20
-84.4804
11
73.2213
21
-84.494
0
LINE
8
BLACK
6
CONTINUOUS
10
73.2213
20
-84.494
11
73.2437
21
-84.5124
0
LINE
8
BLACK
6
CONTINUOUS
10
73.2437
20
-84.5124
11
73.4876
21
-84.7563
0
LINE
8
BLACK
6
CONTINUOUS
10
73.4876
20
-84.7563
11
73.506
21
-84.7787
0
LINE
8
BLACK
6
CONTINUOUS
10
73.506
20
-84.7787
11
73.5196
21
-84.8042
0
LINE
8
BLACK
6
CONTINUOUS
10
73.5196
20
-84.8042
11
73.528
21
-84.8319
0
LINE
8
BLACK
6
CONTINUOUS
10
73.528
20
-84.8319
11
73.5308
21
-84.8606
0
LINE
8
BLACK
6
CONTINUOUS
10
73.5308
20
-84.8606
11
73.528
21
-84.8894
0
LINE
8
BLACK
6
CONTINUOUS
10
73.528
20
-84.8894
11
73.5196
21
-84.9171
0
LINE
8
BLACK
6
CONTINUOUS
10
73.5196
20
-84.9171
11
73.506
21
-84.9426
0
LINE
8
BLACK
6
CONTINUOUS
10
73.506
20
-84.9426
11
73.4876
21
-84.9649
0
LINE
8
BLACK
6
CONTINUOUS
10
73.4876
20
-84.9649
11
73.279
21
-85.1735
0
LINE
8
BLACK
6
CONTINUOUS
10
73.279
20
-85.1735
11
73.2567
21
-85.1919
0
LINE
8
BLACK
6
CONTINUOUS
10
73.2567
20
-85.1919
11
73.2312
21
-85.2055
0
LINE
8
BLACK
6
CONTINUOUS
10
73.2312
20
-85.2055
11
73.2035
21
-85.2139
0
LINE
8
BLACK
6
CONTINUOUS
10
73.2035
20
-85.2139
11
73.1747
21
-85.2167
0
LINE
8
BLACK
6
CONTINUOUS
10
73.1747
20
-85.2167
11
73.146
21
-85.2139
0
LINE
8
BLACK
6
CONTINUOUS
10
73.146
20
-85.2139
11
73.1183
21
-85.2055
0
LINE
8
BLACK
6
CONTINUOUS
10
73.1183
20
-85.2055
11
73.0928
21
-85.1919
0
LINE
8
BLACK
6
CONTINUOUS
10
73.0928
20
-85.1919
11
73.0705
21
-85.1735
0
LINE
8
BLACK
6
CONTINUOUS
10
73.0705
20
-85.1735
11
72.8265
21
-84.9296
0
LINE
8
BLACK
6
CONTINUOUS
10
72.8265
20
-84.9296
11
72.8082
21
-84.9072
0
LINE
8
BLACK
6
CONTINUOUS
10
72.8082
20
-84.9072
11
72.7945
21
-84.8817
0
LINE
8
BLACK
6
CONTINUOUS
10
72.7945
20
-84.8817
11
72.7861
21
-84.854
0
LINE
8
BLACK
6
CONTINUOUS
10
72.7861
20
-84.854
11
72.7833
21
-84.8253
0
LINE
8
BLACK
6
CONTINUOUS
10
72.7833
20
-84.8253
11
72.7861
21
-84.7965
0
LINE
8
BLACK
6
CONTINUOUS
10
72.7861
20
-84.7965
11
72.7945
21
-84.7688
0
LINE
8
BLACK
6
CONTINUOUS
10
72.7945
20
-84.7688
11
72.8082
21
-84.7433
0
LINE
8
BLACK
6
CONTINUOUS
10
72.8082
20
-84.7433
11
72.8265
21
-84.721
0
LINE
8
BLACK
6
CONTINUOUS
10
72.8265
20
-84.721
11
73.0351
21
-84.5124
0
LINE
8
BLACK
6
CONTINUOUS
10
73.0351
20
-84.5124
11
73.0574
21
-84.494
0
LINE
8
BLACK
6
CONTINUOUS
10
73.0574
20
-84.494
11
73.0829
21
-84.4804
0
LINE
8
BLACK
6
CONTINUOUS
10
73.0829
20
-84.4804
11
73.1106
21
-84.472
0
LINE
8
BLACK
6
CONTINUOUS
10
73.1106
20
-84.472
11
73.1394
21
-84.4692
0
LINE
8
BLACK
6
CONTINUOUS
10
73.1394
20
-84.4692
11
73.1682
21
-84.472
0
LINE
8
BLACK
6
CONTINUOUS
10
58.854
20
-83.7861
11
58.8817
21
-83.7945
0
LINE
8
BLACK
6
CONTINUOUS
10
58.8817
20
-83.7945
11
58.9072
21
-83.8081
0
LINE
8
BLACK
6
CONTINUOUS
10
58.9072
20
-83.8081
11
58.9296
21
-83.8265
0
LINE
8
BLACK
6
CONTINUOUS
10
58.9296
20
-83.8265
11
59.1735
21
-84.0704
0
LINE
8
BLACK
6
CONTINUOUS
10
59.1735
20
-84.0704
11
59.1919
21
-84.0928
0
LINE
8
BLACK
6
CONTINUOUS
10
59.1919
20
-84.0928
11
59.2055
21
-84.1183
0
LINE
8
BLACK
6
CONTINUOUS
10
59.2055
20
-84.1183
11
59.2139
21
-84.146
0
LINE
8
BLACK
6
CONTINUOUS
10
59.2139
20
-84.146
11
59.2167
21
-84.1747
0
LINE
8
BLACK
6
CONTINUOUS
10
59.2167
20
-84.1747
11
59.2139
21
-84.2035
0
LINE
8
BLACK
6
CONTINUOUS
10
59.2139
20
-84.2035
11
59.2055
21
-84.2312
0
LINE
8
BLACK
6
CONTINUOUS
10
59.2055
20
-84.2312
11
59.1919
21
-84.2567
0
LINE
8
BLACK
6
CONTINUOUS
10
59.1919
20
-84.2567
11
59.1735
21
-84.279
0
LINE
8
BLACK
6
CONTINUOUS
10
59.1735
20
-84.279
11
58.9649
21
-84.4876
0
LINE
8
BLACK
6
CONTINUOUS
10
58.9649
20
-84.4876
11
58.9426
21
-84.506
0
LINE
8
BLACK
6
CONTINUOUS
10
58.9426
20
-84.506
11
58.9171
21
-84.5196
0
LINE
8
BLACK
6
CONTINUOUS
10
58.9171
20
-84.5196
11
58.8894
21
-84.528
0
LINE
8
BLACK
6
CONTINUOUS
10
58.8894
20
-84.528
11
58.8606
21
-84.5308
0
LINE
8
BLACK
6
CONTINUOUS
10
58.8606
20
-84.5308
11
58.8318
21
-84.528
0
LINE
8
BLACK
6
CONTINUOUS
10
58.8318
20
-84.528
11
58.8042
21
-84.5196
0
LINE
8
BLACK
6
CONTINUOUS
10
58.8042
20
-84.5196
11
58.7787
21
-84.506
0
LINE
8
BLACK
6
CONTINUOUS
10
58.7787
20
-84.506
11
58.7563
21
-84.4876
0
LINE
8
BLACK
6
CONTINUOUS
10
58.7563
20
-84.4876
11
58.5124
21
-84.2437
0
LINE
8
BLACK
6
CONTINUOUS
10
58.5124
20
-84.2437
11
58.494
21
-84.2213
0
LINE
8
BLACK
6
CONTINUOUS
10
58.494
20
-84.2213
11
58.4804
21
-84.1958
0
LINE
8
BLACK
6
CONTINUOUS
10
58.4804
20
-84.1958
11
58.472
21
-84.1682
0
LINE
8
BLACK
6
CONTINUOUS
10
58.472
20
-84.1682
11
58.4692
21
-84.1394
0
LINE
8
BLACK
6
CONTINUOUS
10
58.4692
20
-84.1394
11
58.472
21
-84.1106
0
LINE
8
BLACK
6
CONTINUOUS
10
58.472
20
-84.1106
11
58.4804
21
-84.0829
0
LINE
8
BLACK
6
CONTINUOUS
10
58.4804
20
-84.0829
11
58.494
21
-84.0574
0
LINE
8
BLACK
6
CONTINUOUS
10
58.494
20
-84.0574
11
58.5124
21
-84.0351
0
LINE
8
BLACK
6
CONTINUOUS
10
58.5124
20
-84.0351
11
58.721
21
-83.8265
0
LINE
8
BLACK
6
CONTINUOUS
10
58.721
20
-83.8265
11
58.7433
21
-83.8081
0
LINE
8
BLACK
6
CONTINUOUS
10
58.7433
20
-83.8081
11
58.7688
21
-83.7945
0
LINE
8
BLACK
6
CONTINUOUS
10
58.7688
20
-83.7945
11
58.7965
21
-83.7861
0
LINE
8
BLACK
6
CONTINUOUS
10
58.7965
20
-83.7861
11
58.8253
21
-83.7833
0
LINE
8
BLACK
6
CONTINUOUS
10
58.8253
20
-83.7833
11
58.854
21
-83.7861
0
LINE
8
BLACK
6
CONTINUOUS
10
73.8541
20
-83.7861
11
73.8817
21
-83.7945
0
LINE
8
BLACK
6
CONTINUOUS
10
73.8817
20
-83.7945
11
73.9072
21
-83.8081
0
LINE
8
BLACK
6
CONTINUOUS
10
73.9072
20
-83.8081
11
73.9296
21
-83.8265
0
LINE
8
BLACK
6
CONTINUOUS
10
73.9296
20
-83.8265
11
74.1735
21
-84.0704
0
LINE
8
BLACK
6
CONTINUOUS
10
74.1735
20
-84.0704
11
74.1919
21
-84.0928
0
LINE
8
BLACK
6
CONTINUOUS
10
74.1919
20
-84.0928
11
74.2055
21
-84.1183
0
LINE
8
BLACK
6
CONTINUOUS
10
74.2055
20
-84.1183
11
74.2139
21
-84.146
0
LINE
8
BLACK
6
CONTINUOUS
10
74.2139
20
-84.146
11
74.2167
21
-84.1747
0
LINE
8
BLACK
6
CONTINUOUS
10
74.2167
20
-84.1747
11
74.2139
21
-84.2035
0
LINE
8
BLACK
6
CONTINUOUS
10
74.2139
20
-84.2035
11
74.2055
21
-84.2312
0
LINE
8
BLACK
6
CONTINUOUS
10
74.2055
20
-84.2312
11
74.1919
21
-84.2567
0
LINE
8
BLACK
6
CONTINUOUS
10
74.1919
20
-84.2567
11
74.1735
21
-84.279
0
LINE
8
BLACK
6
CONTINUOUS
10
74.1735
20
-84.279
11
73.9649
21
-84.4876
0
LINE
8
BLACK
6
CONTINUOUS
10
73.9649
20
-84.4876
11
73.9426
21
-84.506
0
LINE
8
BLACK
6
CONTINUOUS
10
73.9426
20
-84.506
11
73.9171
21
-84.5196
0
LINE
8
BLACK
6
CONTINUOUS
10
73.9171
20
-84.5196
11
73.8894
21
-84.528
0
LINE
8
BLACK
6
CONTINUOUS
10
73.8894
20
-84.528
11
73.8606
21
-84.5308
0
LINE
8
BLACK
6
CONTINUOUS
10
73.8606
20
-84.5308
11
73.8319
21
-84.528
0
LINE
8
BLACK
6
CONTINUOUS
10
73.8319
20
-84.528
11
73.8042
21
-84.5196
0
LINE
8
BLACK
6
CONTINUOUS
10
73.8042
20
-84.5196
11
73.7787
21
-84.506
0
LINE
8
BLACK
6
CONTINUOUS
10
73.7787
20
-84.506
11
73.7563
21
-84.4876
0
LINE
8
BLACK
6
CONTINUOUS
10
73.7563
20
-84.4876
11
73.5124
21
-84.2437
0
LINE
8
BLACK
6
CONTINUOUS
10
73.5124
20
-84.2437
11
73.494
21
-84.2213
0
LINE
8
BLACK
6
CONTINUOUS
10
73.494
20
-84.2213
11
73.4804
21
-84.1958
0
LINE
8
BLACK
6
CONTINUOUS
10
73.4804
20
-84.1958
11
73.472
21
-84.1682
0
LINE
8
BLACK
6
CONTINUOUS
10
73.472
20
-84.1682
11
73.4692
21
-84.1394
0
LINE
8
BLACK
6
CONTINUOUS
10
73.4692
20
-84.1394
11
73.472
21
-84.1106
0
LINE
8
BLACK
6
CONTINUOUS
10
73.472
20
-84.1106
11
73.4804
21
-84.0829
0
LINE
8
BLACK
6
CONTINUOUS
10
73.4804
20
-84.0829
11
73.494
21
-84.0574
0
LINE
8
BLACK
6
CONTINUOUS
10
73.494
20
-84.0574
11
73.5124
21
-84.0351
0
LINE
8
BLACK
6
CONTINUOUS
10
73.5124
20
-84.0351
11
73.721
21
-83.8265
0
LINE
8
BLACK
6
CONTINUOUS
10
73.721
20
-83.8265
11
73.7433
21
-83.8081
0
LINE
8
BLACK
6
CONTINUOUS
10
73.7433
20
-83.8081
11
73.7688
21
-83.7945
0
LINE
8
BLACK
6
CONTINUOUS
10
73.7688
20
-83.7945
11
73.7965
21
-83.7861
0
LINE
8
BLACK
6
CONTINUOUS
10
73.7965
20
-83.7861
11
73.8253
21
-83.7833
0
LINE
8
BLACK
6
CONTINUOUS
10
73.8253
20
-83.7833
11
73.8541
21
-83.7861
0
LINE
8
BLACK
6
CONTINUOUS
10
56.598
20
-83.2928
11
56.6121
21
-83.2971
0
LINE
8
BLACK
6
CONTINUOUS
10
56.6121
20
-83.2971
11
56.625
21
-83.304
0
LINE
8
BLACK
6
CONTINUOUS
10
56.625
20
-83.304
11
56.6364
21
-83.3134
0
LINE
8
BLACK
6
CONTINUOUS
10
56.6364
20
-83.3134
11
57.5733
21
-84.2503
0
LINE
8
BLACK
6
CONTINUOUS
10
57.5733
20
-84.2503
11
57.5826
21
-84.2616
0
LINE
8
BLACK
6
CONTINUOUS
10
57.5826
20
-84.2616
11
57.5896
21
-84.2746
0
LINE
8
BLACK
6
CONTINUOUS
10
57.5896
20
-84.2746
11
57.5938
21
-84.2887
0
LINE
8
BLACK
6
CONTINUOUS
10
57.5938
20
-84.2887
11
57.5953
21
-84.3033
0
LINE
8
BLACK
6
CONTINUOUS
10
57.5953
20
-84.3033
11
57.5938
21
-84.3179
0
LINE
8
BLACK
6
CONTINUOUS
10
57.5938
20
-84.3179
11
57.5896
21
-84.332
0
LINE
8
BLACK
6
CONTINUOUS
10
57.5896
20
-84.332
11
57.5826
21
-84.345
0
LINE
8
BLACK
6
CONTINUOUS
10
57.5826
20
-84.345
11
57.5733
21
-84.3563
0
LINE
8
BLACK
6
CONTINUOUS
10
57.5733
20
-84.3563
11
57.4672
21
-84.4624
0
LINE
8
BLACK
6
CONTINUOUS
10
57.4672
20
-84.4624
11
57.4559
21
-84.4717
0
LINE
8
BLACK
6
CONTINUOUS
10
57.4559
20
-84.4717
11
57.4429
21
-84.4787
0
LINE
8
BLACK
6
CONTINUOUS
10
57.4429
20
-84.4787
11
57.4288
21
-84.4829
0
LINE
8
BLACK
6
CONTINUOUS
10
57.4288
20
-84.4829
11
57.4142
21
-84.4844
0
LINE
8
BLACK
6
CONTINUOUS
10
57.4142
20
-84.4844
11
57.3996
21
-84.4829
0
LINE
8
BLACK
6
CONTINUOUS
10
57.3996
20
-84.4829
11
57.3855
21
-84.4787
0
LINE
8
BLACK
6
CONTINUOUS
10
57.3855
20
-84.4787
11
57.3725
21
-84.4717
0
LINE
8
BLACK
6
CONTINUOUS
10
57.3725
20
-84.4717
11
57.3612
21
-84.4624
0
LINE
8
BLACK
6
CONTINUOUS
10
57.3612
20
-84.4624
11
56.4243
21
-83.5255
0
LINE
8
BLACK
6
CONTINUOUS
10
56.4243
20
-83.5255
11
56.4149
21
-83.5141
0
LINE
8
BLACK
6
CONTINUOUS
10
56.4149
20
-83.5141
11
56.408
21
-83.5012
0
LINE
8
BLACK
6
CONTINUOUS
10
56.408
20
-83.5012
11
56.4037
21
-83.4871
0
LINE
8
BLACK
6
CONTINUOUS
10
56.4037
20
-83.4871
11
56.4023
21
-83.4725
0
LINE
8
BLACK
6
CONTINUOUS
10
56.4023
20
-83.4725
11
56.4037
21
-83.4578
0
LINE
8
BLACK
6
CONTINUOUS
10
56.4037
20
-83.4578
11
56.408
21
-83.4438
0
LINE
8
BLACK
6
CONTINUOUS
10
56.408
20
-83.4438
11
56.4149
21
-83.4308
0
LINE
8
BLACK
6
CONTINUOUS
10
56.4149
20
-83.4308
11
56.4243
21
-83.4194
0
LINE
8
BLACK
6
CONTINUOUS
10
56.4243
20
-83.4194
11
56.5303
21
-83.3134
0
LINE
8
BLACK
6
CONTINUOUS
10
56.5303
20
-83.3134
11
56.5417
21
-83.304
0
LINE
8
BLACK
6
CONTINUOUS
10
56.5417
20
-83.304
11
56.5547
21
-83.2971
0
LINE
8
BLACK
6
CONTINUOUS
10
56.5547
20
-83.2971
11
56.5687
21
-83.2928
0
LINE
8
BLACK
6
CONTINUOUS
10
56.5687
20
-83.2928
11
56.5834
21
-83.2914
0
LINE
8
BLACK
6
CONTINUOUS
10
56.5834
20
-83.2914
11
56.598
21
-83.2928
0
LINE
8
BLACK
6
CONTINUOUS
10
70.4313
20
-83.2928
11
70.4454
21
-83.2971
0
LINE
8
BLACK
6
CONTINUOUS
10
70.4454
20
-83.2971
11
70.4583
21
-83.304
0
LINE
8
BLACK
6
CONTINUOUS
10
70.4583
20
-83.304
11
70.4697
21
-83.3134
0
LINE
8
BLACK
6
CONTINUOUS
10
70.4697
20
-83.3134
11
70.5758
21
-83.4194
0
LINE
8
BLACK
6
CONTINUOUS
10
70.5758
20
-83.4194
11
70.5851
21
-83.4308
0
LINE
8
BLACK
6
CONTINUOUS
10
70.5851
20
-83.4308
11
70.592
21
-83.4438
0
LINE
8
BLACK
6
CONTINUOUS
10
70.592
20
-83.4438
11
70.5963
21
-83.4578
0
LINE
8
BLACK
6
CONTINUOUS
10
70.5963
20
-83.4578
11
70.5977
21
-83.4725
0
LINE
8
BLACK
6
CONTINUOUS
10
70.5977
20
-83.4725
11
70.5963
21
-83.4871
0
LINE
8
BLACK
6
CONTINUOUS
10
70.5963
20
-83.4871
11
70.592
21
-83.5012
0
LINE
8
BLACK
6
CONTINUOUS
10
70.592
20
-83.5012
11
70.5851
21
-83.5141
0
LINE
8
BLACK
6
CONTINUOUS
10
70.5851
20
-83.5141
11
70.5758
21
-83.5255
0
LINE
8
BLACK
6
CONTINUOUS
10
70.5758
20
-83.5255
11
69.6388
21
-84.4624
0
LINE
8
BLACK
6
CONTINUOUS
10
69.6388
20
-84.4624
11
69.6275
21
-84.4717
0
LINE
8
BLACK
6
CONTINUOUS
10
69.6275
20
-84.4717
11
69.6145
21
-84.4787
0
LINE
8
BLACK
6
CONTINUOUS
10
69.6145
20
-84.4787
11
69.6004
21
-84.4829
0
LINE
8
BLACK
6
CONTINUOUS
10
69.6004
20
-84.4829
11
69.5858
21
-84.4844
0
LINE
8
BLACK
6
CONTINUOUS
10
69.5858
20
-84.4844
11
69.5712
21
-84.4829
0
LINE
8
BLACK
6
CONTINUOUS
10
69.5712
20
-84.4829
11
69.5571
21
-84.4787
0
LINE
8
BLACK
6
CONTINUOUS
10
69.5571
20
-84.4787
11
69.5441
21
-84.4717
0
LINE
8
BLACK
6
CONTINUOUS
10
69.5441
20
-84.4717
11
69.5328
21
-84.4624
0
LINE
8
BLACK
6
CONTINUOUS
10
69.5328
20
-84.4624
11
69.4267
21
-84.3563
0
LINE
8
BLACK
6
CONTINUOUS
10
69.4267
20
-84.3563
11
69.4174
21
-84.345
0
LINE
8
BLACK
6
CONTINUOUS
10
69.4174
20
-84.345
11
69.4104
21
-84.332
0
LINE
8
BLACK
6
CONTINUOUS
10
69.4104
20
-84.332
11
69.4062
21
-84.3179
0
LINE
8
BLACK
6
CONTINUOUS
10
69.4062
20
-84.3179
11
69.4047
21
-84.3033
0
LINE
8
BLACK
6
CONTINUOUS
10
69.4047
20
-84.3033
11
69.4062
21
-84.2887
0
LINE
8
BLACK
6
CONTINUOUS
10
69.4062
20
-84.2887
11
69.4104
21
-84.2746
0
LINE
8
BLACK
6
CONTINUOUS
10
69.4104
20
-84.2746
11
69.4174
21
-84.2616
0
LINE
8
BLACK
6
CONTINUOUS
10
69.4174
20
-84.2616
11
69.4267
21
-84.2503
0
LINE
8
BLACK
6
CONTINUOUS
10
69.4267
20
-84.2503
11
70.3636
21
-83.3134
0
LINE
8
BLACK
6
CONTINUOUS
10
70.3636
20
-83.3134
11
70.375
21
-83.304
0
LINE
8
BLACK
6
CONTINUOUS
10
70.375
20
-83.304
11
70.388
21
-83.2971
0
LINE
8
BLACK
6
CONTINUOUS
10
70.388
20
-83.2971
11
70.402
21
-83.2928
0
LINE
8
BLACK
6
CONTINUOUS
10
70.402
20
-83.2928
11
70.4167
21
-83.2914
0
LINE
8
BLACK
6
CONTINUOUS
10
70.4167
20
-83.2914
11
70.4313
21
-83.2928
0
LINE
8
BLACK
6
CONTINUOUS
10
55.4313
20
-83.2928
11
55.4453
21
-83.2971
0
LINE
8
BLACK
6
CONTINUOUS
10
55.4453
20
-83.2971
11
55.4583
21
-83.304
0
LINE
8
BLACK
6
CONTINUOUS
10
55.4583
20
-83.304
11
55.4697
21
-83.3134
0
LINE
8
BLACK
6
CONTINUOUS
10
55.4697
20
-83.3134
11
55.5757
21
-83.4194
0
LINE
8
BLACK
6
CONTINUOUS
10
55.5757
20
-83.4194
11
55.5851
21
-83.4308
0
LINE
8
BLACK
6
CONTINUOUS
10
55.5851
20
-83.4308
11
55.592
21
-83.4438
0
LINE
8
BLACK
6
CONTINUOUS
10
55.592
20
-83.4438
11
55.5963
21
-83.4578
0
LINE
8
BLACK
6
CONTINUOUS
10
55.5963
20
-83.4578
11
55.5977
21
-83.4725
0
LINE
8
BLACK
6
CONTINUOUS
10
55.5977
20
-83.4725
11
55.5963
21
-83.4871
0
LINE
8
BLACK
6
CONTINUOUS
10
55.5963
20
-83.4871
11
55.592
21
-83.5012
0
LINE
8
BLACK
6
CONTINUOUS
10
55.592
20
-83.5012
11
55.5851
21
-83.5141
0
LINE
8
BLACK
6
CONTINUOUS
10
55.5851
20
-83.5141
11
55.5757
21
-83.5255
0
LINE
8
BLACK
6
CONTINUOUS
10
55.5757
20
-83.5255
11
54.6388
21
-84.4624
0
LINE
8
BLACK
6
CONTINUOUS
10
54.6388
20
-84.4624
11
54.6275
21
-84.4717
0
LINE
8
BLACK
6
CONTINUOUS
10
54.6275
20
-84.4717
11
54.6145
21
-84.4787
0
LINE
8
BLACK
6
CONTINUOUS
10
54.6145
20
-84.4787
11
54.6004
21
-84.4829
0
LINE
8
BLACK
6
CONTINUOUS
10
54.6004
20
-84.4829
11
54.5858
21
-84.4844
0
LINE
8
BLACK
6
CONTINUOUS
10
54.5858
20
-84.4844
11
54.5712
21
-84.4829
0
LINE
8
BLACK
6
CONTINUOUS
10
54.5712
20
-84.4829
11
54.5571
21
-84.4787
0
LINE
8
BLACK
6
CONTINUOUS
10
54.5571
20
-84.4787
11
54.5441
21
-84.4717
0
LINE
8
BLACK
6
CONTINUOUS
10
54.5441
20
-84.4717
11
54.5328
21
-84.4624
0
LINE
8
BLACK
6
CONTINUOUS
10
54.5328
20
-84.4624
11
54.4267
21
-84.3563
0
LINE
8
BLACK
6
CONTINUOUS
10
54.4267
20
-84.3563
11
54.4174
21
-84.345
0
LINE
8
BLACK
6
CONTINUOUS
10
54.4174
20
-84.345
11
54.4104
21
-84.332
0
LINE
8
BLACK
6
CONTINUOUS
10
54.4104
20
-84.332
11
54.4062
21
-84.3179
0
LINE
8
BLACK
6
CONTINUOUS
10
54.4062
20
-84.3179
11
54.4047
21
-84.3033
0
LINE
8
BLACK
6
CONTINUOUS
10
54.4047
20
-84.3033
11
54.4062
21
-84.2887
0
LINE
8
BLACK
6
CONTINUOUS
10
54.4062
20
-84.2887
11
54.4104
21
-84.2746
0
LINE
8
BLACK
6
CONTINUOUS
10
54.4104
20
-84.2746
11
54.4174
21
-84.2616
0
LINE
8
BLACK
6
CONTINUOUS
10
54.4174
20
-84.2616
11
54.4267
21
-84.2503
0
LINE
8
BLACK
6
CONTINUOUS
10
54.4267
20
-84.2503
11
55.3636
21
-83.3134
0
LINE
8
BLACK
6
CONTINUOUS
10
55.3636
20
-83.3134
11
55.375
21
-83.304
0
LINE
8
BLACK
6
CONTINUOUS
10
55.375
20
-83.304
11
55.3879
21
-83.2971
0
LINE
8
BLACK
6
CONTINUOUS
10
55.3879
20
-83.2971
11
55.402
21
-83.2928
0
LINE
8
BLACK
6
CONTINUOUS
10
55.402
20
-83.2928
11
55.4166
21
-83.2914
0
LINE
8
BLACK
6
CONTINUOUS
10
55.4166
20
-83.2914
11
55.4313
21
-83.2928
0
LINE
8
BLACK
6
CONTINUOUS
10
71.598
20
-83.2928
11
71.6121
21
-83.2971
0
LINE
8
BLACK
6
CONTINUOUS
10
71.6121
20
-83.2971
11
71.625
21
-83.304
0
LINE
8
BLACK
6
CONTINUOUS
10
71.625
20
-83.304
11
71.6364
21
-83.3134
0
LINE
8
BLACK
6
CONTINUOUS
10
71.6364
20
-83.3134
11
72.5733
21
-84.2503
0
LINE
8
BLACK
6
CONTINUOUS
10
72.5733
20
-84.2503
11
72.5827
21
-84.2616
0
LINE
8
BLACK
6
CONTINUOUS
10
72.5827
20
-84.2616
11
72.5896
21
-84.2746
0
LINE
8
BLACK
6
CONTINUOUS
10
72.5896
20
-84.2746
11
72.5939
21
-84.2887
0
LINE
8
BLACK
6
CONTINUOUS
10
72.5939
20
-84.2887
11
72.5953
21
-84.3033
0
LINE
8
BLACK
6
CONTINUOUS
10
72.5953
20
-84.3033
11
72.5939
21
-84.3179
0
LINE
8
BLACK
6
CONTINUOUS
10
72.5939
20
-84.3179
11
72.5896
21
-84.332
0
LINE
8
BLACK
6
CONTINUOUS
10
72.5896
20
-84.332
11
72.5827
21
-84.345
0
LINE
8
BLACK
6
CONTINUOUS
10
72.5827
20
-84.345
11
72.5733
21
-84.3563
0
LINE
8
BLACK
6
CONTINUOUS
10
72.5733
20
-84.3563
11
72.4673
21
-84.4624
0
LINE
8
BLACK
6
CONTINUOUS
10
72.4673
20
-84.4624
11
72.4559
21
-84.4717
0
LINE
8
BLACK
6
CONTINUOUS
10
72.4559
20
-84.4717
11
72.4429
21
-84.4787
0
LINE
8
BLACK
6
CONTINUOUS
10
72.4429
20
-84.4787
11
72.4289
21
-84.4829
0
LINE
8
BLACK
6
CONTINUOUS
10
72.4289
20
-84.4829
11
72.4142
21
-84.4844
0
LINE
8
BLACK
6
CONTINUOUS
10
72.4142
20
-84.4844
11
72.3996
21
-84.4829
0
LINE
8
BLACK
6
CONTINUOUS
10
72.3996
20
-84.4829
11
72.3855
21
-84.4787
0
LINE
8
BLACK
6
CONTINUOUS
10
72.3855
20
-84.4787
11
72.3726
21
-84.4717
0
LINE
8
BLACK
6
CONTINUOUS
10
72.3726
20
-84.4717
11
72.3612
21
-84.4624
0
LINE
8
BLACK
6
CONTINUOUS
10
72.3612
20
-84.4624
11
71.4243
21
-83.5255
0
LINE
8
BLACK
6
CONTINUOUS
10
71.4243
20
-83.5255
11
71.415
21
-83.5141
0
LINE
8
BLACK
6
CONTINUOUS
10
71.415
20
-83.5141
11
71.408
21
-83.5012
0
LINE
8
BLACK
6
CONTINUOUS
10
71.408
20
-83.5012
11
71.4038
21
-83.4871
0
LINE
8
BLACK
6
CONTINUOUS
10
71.4038
20
-83.4871
11
71.4023
21
-83.4725
0
LINE
8
BLACK
6
CONTINUOUS
10
71.4023
20
-83.4725
11
71.4038
21
-83.4578
0
LINE
8
BLACK
6
CONTINUOUS
10
71.4038
20
-83.4578
11
71.408
21
-83.4438
0
LINE
8
BLACK
6
CONTINUOUS
10
71.408
20
-83.4438
11
71.415
21
-83.4308
0
LINE
8
BLACK
6
CONTINUOUS
10
71.415
20
-83.4308
11
71.4243
21
-83.4194
0
LINE
8
BLACK
6
CONTINUOUS
10
71.4243
20
-83.4194
11
71.5303
21
-83.3134
0
LINE
8
BLACK
6
CONTINUOUS
10
71.5303
20
-83.3134
11
71.5417
21
-83.304
0
LINE
8
BLACK
6
CONTINUOUS
10
71.5417
20
-83.304
11
71.5547
21
-83.2971
0
LINE
8
BLACK
6
CONTINUOUS
10
71.5547
20
-83.2971
11
71.5687
21
-83.2928
0
LINE
8
BLACK
6
CONTINUOUS
10
71.5687
20
-83.2928
11
71.5834
21
-83.2914
0
LINE
8
BLACK
6
CONTINUOUS
10
71.5834
20
-83.2914
11
71.598
21
-83.2928
0
LINE
8
BLACK
6
CONTINUOUS
10
52.5894
20
-83.472
11
52.6171
21
-83.4804
0
LINE
8
BLACK
6
CONTINUOUS
10
52.6171
20
-83.4804
11
52.6426
21
-83.494
0
LINE
8
BLACK
6
CONTINUOUS
10
52.6426
20
-83.494
11
52.6649
21
-83.5124
0
LINE
8
BLACK
6
CONTINUOUS
10
52.6649
20
-83.5124
11
52.8735
21
-83.721
0
LINE
8
BLACK
6
CONTINUOUS
10
52.8735
20
-83.721
11
52.8919
21
-83.7433
0
LINE
8
BLACK
6
CONTINUOUS
10
52.8919
20
-83.7433
11
52.9055
21
-83.7688
0
LINE
8
BLACK
6
CONTINUOUS
10
52.9055
20
-83.7688
11
52.9139
21
-83.7965
0
LINE
8
BLACK
6
CONTINUOUS
10
52.9139
20
-83.7965
11
52.9167
21
-83.8253
0
LINE
8
BLACK
6
CONTINUOUS
10
52.9167
20
-83.8253
11
52.9139
21
-83.854
0
LINE
8
BLACK
6
CONTINUOUS
10
52.9139
20
-83.854
11
52.9055
21
-83.8817
0
LINE
8
BLACK
6
CONTINUOUS
10
52.9055
20
-83.8817
11
52.8919
21
-83.9072
0
LINE
8
BLACK
6
CONTINUOUS
10
52.8919
20
-83.9072
11
52.8735
21
-83.9296
0
LINE
8
BLACK
6
CONTINUOUS
10
52.8735
20
-83.9296
11
52.6296
21
-84.1735
0
LINE
8
BLACK
6
CONTINUOUS
10
52.6296
20
-84.1735
11
52.6072
21
-84.1919
0
LINE
8
BLACK
6
CONTINUOUS
10
52.6072
20
-84.1919
11
52.5817
21
-84.2055
0
LINE
8
BLACK
6
CONTINUOUS
10
52.5817
20
-84.2055
11
52.554
21
-84.2139
0
LINE
8
BLACK
6
CONTINUOUS
10
52.554
20
-84.2139
11
52.5253
21
-84.2167
0
LINE
8
BLACK
6
CONTINUOUS
10
52.5253
20
-84.2167
11
52.4965
21
-84.2139
0
LINE
8
BLACK
6
CONTINUOUS
10
52.4965
20
-84.2139
11
52.4688
21
-84.2055
0
LINE
8
BLACK
6
CONTINUOUS
10
52.4688
20
-84.2055
11
52.4433
21
-84.1919
0
LINE
8
BLACK
6
CONTINUOUS
10
52.4433
20
-84.1919
11
52.421
21
-84.1735
0
LINE
8
BLACK
6
CONTINUOUS
10
52.421
20
-84.1735
11
52.2124
21
-83.9649
0
LINE
8
BLACK
6
CONTINUOUS
10
52.2124
20
-83.9649
11
52.194
21
-83.9426
0
LINE
8
BLACK
6
CONTINUOUS
10
52.194
20
-83.9426
11
52.1804
21
-83.9171
0
LINE
8
BLACK
6
CONTINUOUS
10
52.1804
20
-83.9171
11
52.172
21
-83.8894
0
LINE
8
BLACK
6
CONTINUOUS
10
52.172
20
-83.8894
11
52.1692
21
-83.8606
0
LINE
8
BLACK
6
CONTINUOUS
10
52.1692
20
-83.8606
11
52.172
21
-83.8319
0
LINE
8
BLACK
6
CONTINUOUS
10
52.172
20
-83.8319
11
52.1804
21
-83.8042
0
LINE
8
BLACK
6
CONTINUOUS
10
52.1804
20
-83.8042
11
52.194
21
-83.7787
0
LINE
8
BLACK
6
CONTINUOUS
10
52.194
20
-83.7787
11
52.2124
21
-83.7563
0
LINE
8
BLACK
6
CONTINUOUS
10
52.2124
20
-83.7563
11
52.4563
21
-83.5124
0
LINE
8
BLACK
6
CONTINUOUS
10
52.4563
20
-83.5124
11
52.4787
21
-83.494
0
LINE
8
BLACK
6
CONTINUOUS
10
52.4787
20
-83.494
11
52.5042
21
-83.4804
0
LINE
8
BLACK
6
CONTINUOUS
10
52.5042
20
-83.4804
11
52.5318
21
-83.472
0
LINE
8
BLACK
6
CONTINUOUS
10
52.5318
20
-83.472
11
52.5606
21
-83.4692
0
LINE
8
BLACK
6
CONTINUOUS
10
52.5606
20
-83.4692
11
52.5894
21
-83.472
0
LINE
8
BLACK
6
CONTINUOUS
10
67.5894
20
-83.472
11
67.6171
21
-83.4804
0
LINE
8
BLACK
6
CONTINUOUS
10
67.6171
20
-83.4804
11
67.6426
21
-83.494
0
LINE
8
BLACK
6
CONTINUOUS
10
67.6426
20
-83.494
11
67.6649
21
-83.5124
0
LINE
8
BLACK
6
CONTINUOUS
10
67.6649
20
-83.5124
11
67.8735
21
-83.721
0
LINE
8
BLACK
6
CONTINUOUS
10
67.8735
20
-83.721
11
67.8919
21
-83.7433
0
LINE
8
BLACK
6
CONTINUOUS
10
67.8919
20
-83.7433
11
67.9055
21
-83.7688
0
LINE
8
BLACK
6
CONTINUOUS
10
67.9055
20
-83.7688
11
67.9139
21
-83.7965
0
LINE
8
BLACK
6
CONTINUOUS
10
67.9139
20
-83.7965
11
67.9167
21
-83.8253
0
LINE
8
BLACK
6
CONTINUOUS
10
67.9167
20
-83.8253
11
67.9139
21
-83.854
0
LINE
8
BLACK
6
CONTINUOUS
10
67.9139
20
-83.854
11
67.9055
21
-83.8817
0
LINE
8
BLACK
6
CONTINUOUS
10
67.9055
20
-83.8817
11
67.8919
21
-83.9072
0
LINE
8
BLACK
6
CONTINUOUS
10
67.8919
20
-83.9072
11
67.8735
21
-83.9296
0
LINE
8
BLACK
6
CONTINUOUS
10
67.8735
20
-83.9296
11
67.6296
21
-84.1735
0
LINE
8
BLACK
6
CONTINUOUS
10
67.6296
20
-84.1735
11
67.6072
21
-84.1919
0
LINE
8
BLACK
6
CONTINUOUS
10
67.6072
20
-84.1919
11
67.5817
21
-84.2055
0
LINE
8
BLACK
6
CONTINUOUS
10
67.5817
20
-84.2055
11
67.5541
21
-84.2139
0
LINE
8
BLACK
6
CONTINUOUS
10
67.5541
20
-84.2139
11
67.5253
21
-84.2167
0
LINE
8
BLACK
6
CONTINUOUS
10
67.5253
20
-84.2167
11
67.4965
21
-84.2139
0
LINE
8
BLACK
6
CONTINUOUS
10
67.4965
20
-84.2139
11
67.4688
21
-84.2055
0
LINE
8
BLACK
6
CONTINUOUS
10
67.4688
20
-84.2055
11
67.4433
21
-84.1919
0
LINE
8
BLACK
6
CONTINUOUS
10
67.4433
20
-84.1919
11
67.421
21
-84.1735
0
LINE
8
BLACK
6
CONTINUOUS
10
67.421
20
-84.1735
11
67.2124
21
-83.9649
0
LINE
8
BLACK
6
CONTINUOUS
10
67.2124
20
-83.9649
11
67.194
21
-83.9426
0
LINE
8
BLACK
6
CONTINUOUS
10
67.194
20
-83.9426
11
67.1804
21
-83.9171
0
LINE
8
BLACK
6
CONTINUOUS
10
67.1804
20
-83.9171
11
67.172
21
-83.8894
0
LINE
8
BLACK
6
CONTINUOUS
10
67.172
20
-83.8894
11
67.1692
21
-83.8606
0
LINE
8
BLACK
6
CONTINUOUS
10
67.1692
20
-83.8606
11
67.172
21
-83.8319
0
LINE
8
BLACK
6
CONTINUOUS
10
67.172
20
-83.8319
11
67.1804
21
-83.8042
0
LINE
8
BLACK
6
CONTINUOUS
10
67.1804
20
-83.8042
11
67.194
21
-83.7787
0
LINE
8
BLACK
6
CONTINUOUS
10
67.194
20
-83.7787
11
67.2124
21
-83.7563
0
LINE
8
BLACK
6
CONTINUOUS
10
67.2124
20
-83.7563
11
67.4563
21
-83.5124
0
LINE
8
BLACK
6
CONTINUOUS
10
67.4563
20
-83.5124
11
67.4787
21
-83.494
0
LINE
8
BLACK
6
CONTINUOUS
10
67.4787
20
-83.494
11
67.5042
21
-83.4804
0
LINE
8
BLACK
6
CONTINUOUS
10
67.5042
20
-83.4804
11
67.5319
21
-83.472
0
LINE
8
BLACK
6
CONTINUOUS
10
67.5319
20
-83.472
11
67.5606
21
-83.4692
0
LINE
8
BLACK
6
CONTINUOUS
10
67.5606
20
-83.4692
11
67.5894
21
-83.472
0
LINE
8
BLACK
6
CONTINUOUS
10
56.9515
20
-82.9393
11
56.9656
21
-82.9435
0
LINE
8
BLACK
6
CONTINUOUS
10
56.9656
20
-82.9435
11
56.9786
21
-82.9505
0
LINE
8
BLACK
6
CONTINUOUS
10
56.9786
20
-82.9505
11
56.99
21
-82.9598
0
LINE
8
BLACK
6
CONTINUOUS
10
56.99
20
-82.9598
11
57.9269
21
-83.8967
0
LINE
8
BLACK
6
CONTINUOUS
10
57.9269
20
-83.8967
11
57.9362
21
-83.9081
0
LINE
8
BLACK
6
CONTINUOUS
10
57.9362
20
-83.9081
11
57.9431
21
-83.921
0
LINE
8
BLACK
6
CONTINUOUS
10
57.9431
20
-83.921
11
57.9474
21
-83.9351
0
LINE
8
BLACK
6
CONTINUOUS
10
57.9474
20
-83.9351
11
57.9488
21
-83.9497
0
LINE
8
BLACK
6
CONTINUOUS
10
57.9488
20
-83.9497
11
57.9474
21
-83.9644
0
LINE
8
BLACK
6
CONTINUOUS
10
57.9474
20
-83.9644
11
57.9431
21
-83.9784
0
LINE
8
BLACK
6
CONTINUOUS
10
57.9431
20
-83.9784
11
57.9362
21
-83.9914
0
LINE
8
BLACK
6
CONTINUOUS
10
57.9362
20
-83.9914
11
57.9269
21
-84.0028
0
LINE
8
BLACK
6
CONTINUOUS
10
57.9269
20
-84.0028
11
57.8208
21
-84.1088
0
LINE
8
BLACK
6
CONTINUOUS
10
57.8208
20
-84.1088
11
57.8094
21
-84.1182
0
LINE
8
BLACK
6
CONTINUOUS
10
57.8094
20
-84.1182
11
57.7965
21
-84.1251
0
LINE
8
BLACK
6
CONTINUOUS
10
57.7965
20
-84.1251
11
57.7824
21
-84.1294
0
LINE
8
BLACK
6
CONTINUOUS
10
57.7824
20
-84.1294
11
57.7678
21
-84.1308
0
LINE
8
BLACK
6
CONTINUOUS
10
57.7678
20
-84.1308
11
57.7531
21
-84.1294
0
LINE
8
BLACK
6
CONTINUOUS
10
57.7531
20
-84.1294
11
57.7391
21
-84.1251
0
LINE
8
BLACK
6
CONTINUOUS
10
57.7391
20
-84.1251
11
57.7261
21
-84.1182
0
LINE
8
BLACK
6
CONTINUOUS
10
57.7261
20
-84.1182
11
57.7147
21
-84.1088
0
LINE
8
BLACK
6
CONTINUOUS
10
57.7147
20
-84.1088
11
56.7778
21
-83.1719
0
LINE
8
BLACK
6
CONTINUOUS
10
56.7778
20
-83.1719
11
56.7685
21
-83.1606
0
LINE
8
BLACK
6
CONTINUOUS
10
56.7685
20
-83.1606
11
56.7616
21
-83.1476
0
LINE
8
BLACK
6
CONTINUOUS
10
56.7616
20
-83.1476
11
56.7573
21
-83.1335
0
LINE
8
BLACK
6
CONTINUOUS
10
56.7573
20
-83.1335
11
56.7559
21
-83.1189
0
LINE
8
BLACK
6
CONTINUOUS
10
56.7559
20
-83.1189
11
56.7573
21
-83.1043
0
LINE
8
BLACK
6
CONTINUOUS
10
56.7573
20
-83.1043
11
56.7616
21
-83.0902
0
LINE
8
BLACK
6
CONTINUOUS
10
56.7616
20
-83.0902
11
56.7685
21
-83.0772
0
LINE
8
BLACK
6
CONTINUOUS
10
56.7685
20
-83.0772
11
56.7778
21
-83.0659
0
LINE
8
BLACK
6
CONTINUOUS
10
56.7778
20
-83.0659
11
56.8839
21
-82.9598
0
LINE
8
BLACK
6
CONTINUOUS
10
56.8839
20
-82.9598
11
56.8952
21
-82.9505
0
LINE
8
BLACK
6
CONTINUOUS
10
56.8952
20
-82.9505
11
56.9082
21
-82.9435
0
LINE
8
BLACK
6
CONTINUOUS
10
56.9082
20
-82.9435
11
56.9223
21
-82.9393
0
LINE
8
BLACK
6
CONTINUOUS
10
56.9223
20
-82.9393
11
56.9369
21
-82.9378
0
LINE
8
BLACK
6
CONTINUOUS
10
56.9369
20
-82.9378
11
56.9515
21
-82.9393
0
LINE
8
BLACK
6
CONTINUOUS
10
70.0777
20
-82.9393
11
70.0918
21
-82.9435
0
LINE
8
BLACK
6
CONTINUOUS
10
70.0918
20
-82.9435
11
70.1048
21
-82.9505
0
LINE
8
BLACK
6
CONTINUOUS
10
70.1048
20
-82.9505
11
70.1161
21
-82.9598
0
LINE
8
BLACK
6
CONTINUOUS
10
70.1161
20
-82.9598
11
70.2222
21
-83.0659
0
LINE
8
BLACK
6
CONTINUOUS
10
70.2222
20
-83.0659
11
70.2315
21
-83.0772
0
LINE
8
BLACK
6
CONTINUOUS
10
70.2315
20
-83.0772
11
70.2385
21
-83.0902
0
LINE
8
BLACK
6
CONTINUOUS
10
70.2385
20
-83.0902
11
70.2427
21
-83.1043
0
LINE
8
BLACK
6
CONTINUOUS
10
70.2427
20
-83.1043
11
70.2442
21
-83.1189
0
LINE
8
BLACK
6
CONTINUOUS
10
70.2442
20
-83.1189
11
70.2427
21
-83.1335
0
LINE
8
BLACK
6
CONTINUOUS
10
70.2427
20
-83.1335
11
70.2385
21
-83.1476
0
LINE
8
BLACK
6
CONTINUOUS
10
70.2385
20
-83.1476
11
70.2315
21
-83.1606
0
LINE
8
BLACK
6
CONTINUOUS
10
70.2315
20
-83.1606
11
70.2222
21
-83.1719
0
LINE
8
BLACK
6
CONTINUOUS
10
70.2222
20
-83.1719
11
69.2853
21
-84.1088
0
LINE
8
BLACK
6
CONTINUOUS
10
69.2853
20
-84.1088
11
69.2739
21
-84.1182
0
LINE
8
BLACK
6
CONTINUOUS
10
69.2739
20
-84.1182
11
69.261
21
-84.1251
0
LINE
8
BLACK
6
CONTINUOUS
10
69.261
20
-84.1251
11
69.2469
21
-84.1294
0
LINE
8
BLACK
6
CONTINUOUS
10
69.2469
20
-84.1294
11
69.2323
21
-84.1308
0
LINE
8
BLACK
6
CONTINUOUS
10
69.2323
20
-84.1308
11
69.2176
21
-84.1294
0
LINE
8
BLACK
6
CONTINUOUS
10
69.2176
20
-84.1294
11
69.2035
21
-84.1251
0
LINE
8
BLACK
6
CONTINUOUS
10
69.2035
20
-84.1251
11
69.1906
21
-84.1182
0
LINE
8
BLACK
6
CONTINUOUS
10
69.1906
20
-84.1182
11
69.1792
21
-84.1088
0
LINE
8
BLACK
6
CONTINUOUS
10
69.1792
20
-84.1088
11
69.0732
21
-84.0028
0
LINE
8
BLACK
6
CONTINUOUS
10
69.0732
20
-84.0028
11
69.0638
21
-83.9914
0
LINE
8
BLACK
6
CONTINUOUS
10
69.0638
20
-83.9914
11
69.0569
21
-83.9784
0
LINE
8
BLACK
6
CONTINUOUS
10
69.0569
20
-83.9784
11
69.0526
21
-83.9644
0
LINE
8
BLACK
6
CONTINUOUS
10
69.0526
20
-83.9644
11
69.0512
21
-83.9497
0
LINE
8
BLACK
6
CONTINUOUS
10
69.0512
20
-83.9497
11
69.0526
21
-83.9351
0
LINE
8
BLACK
6
CONTINUOUS
10
69.0526
20
-83.9351
11
69.0569
21
-83.921
0
LINE
8
BLACK
6
CONTINUOUS
10
69.0569
20
-83.921
11
69.0638
21
-83.9081
0
LINE
8
BLACK
6
CONTINUOUS
10
69.0638
20
-83.9081
11
69.0732
21
-83.8967
0
LINE
8
BLACK
6
CONTINUOUS
10
69.0732
20
-83.8967
11
70.0101
21
-82.9598
0
LINE
8
BLACK
6
CONTINUOUS
10
70.0101
20
-82.9598
11
70.0214
21
-82.9505
0
LINE
8
BLACK
6
CONTINUOUS
10
70.0214
20
-82.9505
11
70.0344
21
-82.9435
0
LINE
8
BLACK
6
CONTINUOUS
10
70.0344
20
-82.9435
11
70.0485
21
-82.9393
0
LINE
8
BLACK
6
CONTINUOUS
10
70.0485
20
-82.9393
11
70.0631
21
-82.9378
0
LINE
8
BLACK
6
CONTINUOUS
10
70.0631
20
-82.9378
11
70.0777
21
-82.9393
0
LINE
8
BLACK
6
CONTINUOUS
10
55.0777
20
-82.9393
11
55.0918
21
-82.9435
0
LINE
8
BLACK
6
CONTINUOUS
10
55.0918
20
-82.9435
11
55.1048
21
-82.9505
0
LINE
8
BLACK
6
CONTINUOUS
10
55.1048
20
-82.9505
11
55.1161
21
-82.9598
0
LINE
8
BLACK
6
CONTINUOUS
10
55.1161
20
-82.9598
11
55.2222
21
-83.0659
0
LINE
8
BLACK
6
CONTINUOUS
10
55.2222
20
-83.0659
11
55.2315
21
-83.0772
0
LINE
8
BLACK
6
CONTINUOUS
10
55.2315
20
-83.0772
11
55.2384
21
-83.0902
0
LINE
8
BLACK
6
CONTINUOUS
10
55.2384
20
-83.0902
11
55.2427
21
-83.1043
0
LINE
8
BLACK
6
CONTINUOUS
10
55.2427
20
-83.1043
11
55.2441
21
-83.1189
0
LINE
8
BLACK
6
CONTINUOUS
10
55.2441
20
-83.1189
11
55.2427
21
-83.1335
0
LINE
8
BLACK
6
CONTINUOUS
10
55.2427
20
-83.1335
11
55.2384
21
-83.1476
0
LINE
8
BLACK
6
CONTINUOUS
10
55.2384
20
-83.1476
11
55.2315
21
-83.1606
0
LINE
8
BLACK
6
CONTINUOUS
10
55.2315
20
-83.1606
11
55.2222
21
-83.1719
0
LINE
8
BLACK
6
CONTINUOUS
10
55.2222
20
-83.1719
11
54.2853
21
-84.1088
0
LINE
8
BLACK
6
CONTINUOUS
10
54.2853
20
-84.1088
11
54.2739
21
-84.1182
0
LINE
8
BLACK
6
CONTINUOUS
10
54.2739
20
-84.1182
11
54.2609
21
-84.1251
0
LINE
8
BLACK
6
CONTINUOUS
10
54.2609
20
-84.1251
11
54.2469
21
-84.1294
0
LINE
8
BLACK
6
CONTINUOUS
10
54.2469
20
-84.1294
11
54.2322
21
-84.1308
0
LINE
8
BLACK
6
CONTINUOUS
10
54.2322
20
-84.1308
11
54.2176
21
-84.1294
0
LINE
8
BLACK
6
CONTINUOUS
10
54.2176
20
-84.1294
11
54.2035
21
-84.1251
0
LINE
8
BLACK
6
CONTINUOUS
10
54.2035
20
-84.1251
11
54.1906
21
-84.1182
0
LINE
8
BLACK
6
CONTINUOUS
10
54.1906
20
-84.1182
11
54.1792
21
-84.1088
0
LINE
8
BLACK
6
CONTINUOUS
10
54.1792
20
-84.1088
11
54.0731
21
-84.0028
0
LINE
8
BLACK
6
CONTINUOUS
10
54.0731
20
-84.0028
11
54.0638
21
-83.9914
0
LINE
8
BLACK
6
CONTINUOUS
10
54.0638
20
-83.9914
11
54.0569
21
-83.9784
0
LINE
8
BLACK
6
CONTINUOUS
10
54.0569
20
-83.9784
11
54.0526
21
-83.9644
0
LINE
8
BLACK
6
CONTINUOUS
10
54.0526
20
-83.9644
11
54.0512
21
-83.9497
0
LINE
8
BLACK
6
CONTINUOUS
10
54.0512
20
-83.9497
11
54.0526
21
-83.9351
0
LINE
8
BLACK
6
CONTINUOUS
10
54.0526
20
-83.9351
11
54.0569
21
-83.921
0
LINE
8
BLACK
6
CONTINUOUS
10
54.0569
20
-83.921
11
54.0638
21
-83.9081
0
LINE
8
BLACK
6
CONTINUOUS
10
54.0638
20
-83.9081
11
54.0731
21
-83.8967
0
LINE
8
BLACK
6
CONTINUOUS
10
54.0731
20
-83.8967
11
55.0101
21
-82.9598
0
LINE
8
BLACK
6
CONTINUOUS
10
55.0101
20
-82.9598
11
55.0214
21
-82.9505
0
LINE
8
BLACK
6
CONTINUOUS
10
55.0214
20
-82.9505
11
55.0344
21
-82.9435
0
LINE
8
BLACK
6
CONTINUOUS
10
55.0344
20
-82.9435
11
55.0485
21
-82.9393
0
LINE
8
BLACK
6
CONTINUOUS
10
55.0485
20
-82.9393
11
55.0631
21
-82.9378
0
LINE
8
BLACK
6
CONTINUOUS
10
55.0631
20
-82.9378
11
55.0777
21
-82.9393
0
LINE
8
BLACK
6
CONTINUOUS
10
71.9516
20
-82.9393
11
71.9656
21
-82.9435
0
LINE
8
BLACK
6
CONTINUOUS
10
71.9656
20
-82.9435
11
71.9786
21
-82.9505
0
LINE
8
BLACK
6
CONTINUOUS
10
71.9786
20
-82.9505
11
71.99
21
-82.9598
0
LINE
8
BLACK
6
CONTINUOUS
10
71.99
20
-82.9598
11
72.9269
21
-83.8967
0
LINE
8
BLACK
6
CONTINUOUS
10
72.9269
20
-83.8967
11
72.9362
21
-83.9081
0
LINE
8
BLACK
6
CONTINUOUS
10
72.9362
20
-83.9081
11
72.9431
21
-83.921
0
LINE
8
BLACK
6
CONTINUOUS
10
72.9431
20
-83.921
11
72.9474
21
-83.9351
0
LINE
8
BLACK
6
CONTINUOUS
10
72.9474
20
-83.9351
11
72.9489
21
-83.9497
0
LINE
8
BLACK
6
CONTINUOUS
10
72.9489
20
-83.9497
11
72.9474
21
-83.9644
0
LINE
8
BLACK
6
CONTINUOUS
10
72.9474
20
-83.9644
11
72.9431
21
-83.9784
0
LINE
8
BLACK
6
CONTINUOUS
10
72.9431
20
-83.9784
11
72.9362
21
-83.9914
0
LINE
8
BLACK
6
CONTINUOUS
10
72.9362
20
-83.9914
11
72.9269
21
-84.0028
0
LINE
8
BLACK
6
CONTINUOUS
10
72.9269
20
-84.0028
11
72.8208
21
-84.1088
0
LINE
8
BLACK
6
CONTINUOUS
10
72.8208
20
-84.1088
11
72.8095
21
-84.1182
0
LINE
8
BLACK
6
CONTINUOUS
10
72.8095
20
-84.1182
11
72.7965
21
-84.1251
0
LINE
8
BLACK
6
CONTINUOUS
10
72.7965
20
-84.1251
11
72.7824
21
-84.1294
0
LINE
8
BLACK
6
CONTINUOUS
10
72.7824
20
-84.1294
11
72.7678
21
-84.1308
0
LINE
8
BLACK
6
CONTINUOUS
10
72.7678
20
-84.1308
11
72.7532
21
-84.1294
0
LINE
8
BLACK
6
CONTINUOUS
10
72.7532
20
-84.1294
11
72.7391
21
-84.1251
0
LINE
8
BLACK
6
CONTINUOUS
10
72.7391
20
-84.1251
11
72.7261
21
-84.1182
0
LINE
8
BLACK
6
CONTINUOUS
10
72.7261
20
-84.1182
11
72.7148
21
-84.1088
0
LINE
8
BLACK
6
CONTINUOUS
10
72.7148
20
-84.1088
11
71.7778
21
-83.1719
0
LINE
8
BLACK
6
CONTINUOUS
10
71.7778
20
-83.1719
11
71.7685
21
-83.1606
0
LINE
8
BLACK
6
CONTINUOUS
10
71.7685
20
-83.1606
11
71.7616
21
-83.1476
0
LINE
8
BLACK
6
CONTINUOUS
10
71.7616
20
-83.1476
11
71.7573
21
-83.1335
0
LINE
8
BLACK
6
CONTINUOUS
10
71.7573
20
-83.1335
11
71.7559
21
-83.1189
0
LINE
8
BLACK
6
CONTINUOUS
10
71.7559
20
-83.1189
11
71.7573
21
-83.1043
0
LINE
8
BLACK
6
CONTINUOUS
10
71.7573
20
-83.1043
11
71.7616
21
-83.0902
0
LINE
8
BLACK
6
CONTINUOUS
10
71.7616
20
-83.0902
11
71.7685
21
-83.0772
0
LINE
8
BLACK
6
CONTINUOUS
10
71.7685
20
-83.0772
11
71.7778
21
-83.0659
0
LINE
8
BLACK
6
CONTINUOUS
10
71.7778
20
-83.0659
11
71.8839
21
-82.9598
0
LINE
8
BLACK
6
CONTINUOUS
10
71.8839
20
-82.9598
11
71.8953
21
-82.9505
0
LINE
8
BLACK
6
CONTINUOUS
10
71.8953
20
-82.9505
11
71.9082
21
-82.9435
0
LINE
8
BLACK
6
CONTINUOUS
10
71.9082
20
-82.9435
11
71.9223
21
-82.9393
0
LINE
8
BLACK
6
CONTINUOUS
10
71.9223
20
-82.9393
11
71.9369
21
-82.9378
0
LINE
8
BLACK
6
CONTINUOUS
10
71.9369
20
-82.9378
11
71.9516
21
-82.9393
0
LINE
8
BLACK
6
CONTINUOUS
10
72.3051
20
-82.5857
11
72.3192
21
-82.59
0
LINE
8
BLACK
6
CONTINUOUS
10
72.3192
20
-82.59
11
72.3322
21
-82.5969
0
LINE
8
BLACK
6
CONTINUOUS
10
72.3322
20
-82.5969
11
72.3435
21
-82.6062
0
LINE
8
BLACK
6
CONTINUOUS
10
72.3435
20
-82.6062
11
73.2804
21
-83.5432
0
LINE
8
BLACK
6
CONTINUOUS
10
73.2804
20
-83.5432
11
73.2898
21
-83.5545
0
LINE
8
BLACK
6
CONTINUOUS
10
73.2898
20
-83.5545
11
73.2967
21
-83.5675
0
LINE
8
BLACK
6
CONTINUOUS
10
73.2967
20
-83.5675
11
73.301
21
-83.5816
0
LINE
8
BLACK
6
CONTINUOUS
10
73.301
20
-83.5816
11
73.3024
21
-83.5962
0
LINE
8
BLACK
6
CONTINUOUS
10
73.3024
20
-83.5962
11
73.301
21
-83.6108
0
LINE
8
BLACK
6
CONTINUOUS
10
73.301
20
-83.6108
11
73.2967
21
-83.6249
0
LINE
8
BLACK
6
CONTINUOUS
10
73.2967
20
-83.6249
11
73.2898
21
-83.6379
0
LINE
8
BLACK
6
CONTINUOUS
10
73.2898
20
-83.6379
11
73.2804
21
-83.6492
0
LINE
8
BLACK
6
CONTINUOUS
10
73.2804
20
-83.6492
11
73.1744
21
-83.7553
0
LINE
8
BLACK
6
CONTINUOUS
10
73.1744
20
-83.7553
11
73.163
21
-83.7646
0
LINE
8
BLACK
6
CONTINUOUS
10
73.163
20
-83.7646
11
73.15
21
-83.7716
0
LINE
8
BLACK
6
CONTINUOUS
10
73.15
20
-83.7716
11
73.136
21
-83.7758
0
LINE
8
BLACK
6
CONTINUOUS
10
73.136
20
-83.7758
11
73.1213
21
-83.7773
0
LINE
8
BLACK
6
CONTINUOUS
10
73.1213
20
-83.7773
11
73.1067
21
-83.7758
0
LINE
8
BLACK
6
CONTINUOUS
10
73.1067
20
-83.7758
11
73.0926
21
-83.7716
0
LINE
8
BLACK
6
CONTINUOUS
10
73.0926
20
-83.7716
11
73.0797
21
-83.7646
0
LINE
8
BLACK
6
CONTINUOUS
10
73.0797
20
-83.7646
11
73.0683
21
-83.7553
0
LINE
8
BLACK
6
CONTINUOUS
10
73.0683
20
-83.7553
11
72.1314
21
-82.8184
0
LINE
8
BLACK
6
CONTINUOUS
10
72.1314
20
-82.8184
11
72.1221
21
-82.807
0
LINE
8
BLACK
6
CONTINUOUS
10
72.1221
20
-82.807
11
72.1151
21
-82.794
0
LINE
8
BLACK
6
CONTINUOUS
10
72.1151
20
-82.794
11
72.1109
21
-82.78
0
LINE
8
BLACK
6
CONTINUOUS
10
72.1109
20
-82.78
11
72.1094
21
-82.7653
0
LINE
8
BLACK
6
CONTINUOUS
10
72.1094
20
-82.7653
11
72.1109
21
-82.7507
0
LINE
8
BLACK
6
CONTINUOUS
10
72.1109
20
-82.7507
11
72.1151
21
-82.7366
0
LINE
8
BLACK
6
CONTINUOUS
10
72.1151
20
-82.7366
11
72.1221
21
-82.7237
0
LINE
8
BLACK
6
CONTINUOUS
10
72.1221
20
-82.7237
11
72.1314
21
-82.7123
0
LINE
8
BLACK
6
CONTINUOUS
10
72.1314
20
-82.7123
11
72.2375
21
-82.6062
0
LINE
8
BLACK
6
CONTINUOUS
10
72.2375
20
-82.6062
11
72.2488
21
-82.5969
0
LINE
8
BLACK
6
CONTINUOUS
10
72.2488
20
-82.5969
11
72.2618
21
-82.59
0
LINE
8
BLACK
6
CONTINUOUS
10
72.2618
20
-82.59
11
72.2759
21
-82.5857
0
LINE
8
BLACK
6
CONTINUOUS
10
72.2759
20
-82.5857
11
72.2905
21
-82.5843
0
LINE
8
BLACK
6
CONTINUOUS
10
72.2905
20
-82.5843
11
72.3051
21
-82.5857
0
LINE
8
BLACK
6
CONTINUOUS
10
54.7242
20
-82.5857
11
54.7382
21
-82.59
0
LINE
8
BLACK
6
CONTINUOUS
10
54.7382
20
-82.59
11
54.7512
21
-82.5969
0
LINE
8
BLACK
6
CONTINUOUS
10
54.7512
20
-82.5969
11
54.7626
21
-82.6062
0
LINE
8
BLACK
6
CONTINUOUS
10
54.7626
20
-82.6062
11
54.8686
21
-82.7123
0
LINE
8
BLACK
6
CONTINUOUS
10
54.8686
20
-82.7123
11
54.878
21
-82.7237
0
LINE
8
BLACK
6
CONTINUOUS
10
54.878
20
-82.7237
11
54.8849
21
-82.7366
0
LINE
8
BLACK
6
CONTINUOUS
10
54.8849
20
-82.7366
11
54.8892
21
-82.7507
0
LINE
8
BLACK
6
CONTINUOUS
10
54.8892
20
-82.7507
11
54.8906
21
-82.7653
0
LINE
8
BLACK
6
CONTINUOUS
10
54.8906
20
-82.7653
11
54.8892
21
-82.78
0
LINE
8
BLACK
6
CONTINUOUS
10
54.8892
20
-82.78
11
54.8849
21
-82.794
0
LINE
8
BLACK
6
CONTINUOUS
10
54.8849
20
-82.794
11
54.878
21
-82.807
0
LINE
8
BLACK
6
CONTINUOUS
10
54.878
20
-82.807
11
54.8686
21
-82.8184
0
LINE
8
BLACK
6
CONTINUOUS
10
54.8686
20
-82.8184
11
53.9317
21
-83.7553
0
LINE
8
BLACK
6
CONTINUOUS
10
53.9317
20
-83.7553
11
53.9203
21
-83.7646
0
LINE
8
BLACK
6
CONTINUOUS
10
53.9203
20
-83.7646
11
53.9074
21
-83.7716
0
LINE
8
BLACK
6
CONTINUOUS
10
53.9074
20
-83.7716
11
53.8933
21
-83.7758
0
LINE
8
BLACK
6
CONTINUOUS
10
53.8933
20
-83.7758
11
53.8787
21
-83.7773
0
LINE
8
BLACK
6
CONTINUOUS
10
53.8787
20
-83.7773
11
53.864
21
-83.7758
0
LINE
8
BLACK
6
CONTINUOUS
10
53.864
20
-83.7758
11
53.85
21
-83.7716
0
LINE
8
BLACK
6
CONTINUOUS
10
53.85
20
-83.7716
11
53.837
21
-83.7646
0
LINE
8
BLACK
6
CONTINUOUS
10
53.837
20
-83.7646
11
53.8256
21
-83.7553
0
LINE
8
BLACK
6
CONTINUOUS
10
53.8256
20
-83.7553
11
53.7196
21
-83.6492
0
LINE
8
BLACK
6
CONTINUOUS
10
53.7196
20
-83.6492
11
53.7103
21
-83.6379
0
LINE
8
BLACK
6
CONTINUOUS
10
53.7103
20
-83.6379
11
53.7033
21
-83.6249
0
LINE
8
BLACK
6
CONTINUOUS
10
53.7033
20
-83.6249
11
53.6991
21
-83.6108
0
LINE
8
BLACK
6
CONTINUOUS
10
53.6991
20
-83.6108
11
53.6976
21
-83.5962
0
LINE
8
BLACK
6
CONTINUOUS
10
53.6976
20
-83.5962
11
53.6991
21
-83.5816
0
LINE
8
BLACK
6
CONTINUOUS
10
53.6991
20
-83.5816
11
53.7033
21
-83.5675
0
LINE
8
BLACK
6
CONTINUOUS
10
53.7033
20
-83.5675
11
53.7103
21
-83.5545
0
LINE
8
BLACK
6
CONTINUOUS
10
53.7103
20
-83.5545
11
53.7196
21
-83.5432
0
LINE
8
BLACK
6
CONTINUOUS
10
53.7196
20
-83.5432
11
54.6565
21
-82.6062
0
LINE
8
BLACK
6
CONTINUOUS
10
54.6565
20
-82.6062
11
54.6679
21
-82.5969
0
LINE
8
BLACK
6
CONTINUOUS
10
54.6679
20
-82.5969
11
54.6808
21
-82.59
0
LINE
8
BLACK
6
CONTINUOUS
10
54.6808
20
-82.59
11
54.6949
21
-82.5857
0
LINE
8
BLACK
6
CONTINUOUS
10
54.6949
20
-82.5857
11
54.7095
21
-82.5843
0
LINE
8
BLACK
6
CONTINUOUS
10
54.7095
20
-82.5843
11
54.7242
21
-82.5857
0
LINE
8
BLACK
6
CONTINUOUS
10
57.3051
20
-82.5857
11
57.3192
21
-82.59
0
LINE
8
BLACK
6
CONTINUOUS
10
57.3192
20
-82.59
11
57.3321
21
-82.5969
0
LINE
8
BLACK
6
CONTINUOUS
10
57.3321
20
-82.5969
11
57.3435
21
-82.6062
0
LINE
8
BLACK
6
CONTINUOUS
10
57.3435
20
-82.6062
11
58.2804
21
-83.5432
0
LINE
8
BLACK
6
CONTINUOUS
10
58.2804
20
-83.5432
11
58.2897
21
-83.5545
0
LINE
8
BLACK
6
CONTINUOUS
10
58.2897
20
-83.5545
11
58.2967
21
-83.5675
0
LINE
8
BLACK
6
CONTINUOUS
10
58.2967
20
-83.5675
11
58.3009
21
-83.5816
0
LINE
8
BLACK
6
CONTINUOUS
10
58.3009
20
-83.5816
11
58.3024
21
-83.5962
0
LINE
8
BLACK
6
CONTINUOUS
10
58.3024
20
-83.5962
11
58.3009
21
-83.6108
0
LINE
8
BLACK
6
CONTINUOUS
10
58.3009
20
-83.6108
11
58.2967
21
-83.6249
0
LINE
8
BLACK
6
CONTINUOUS
10
58.2967
20
-83.6249
11
58.2897
21
-83.6379
0
LINE
8
BLACK
6
CONTINUOUS
10
58.2897
20
-83.6379
11
58.2804
21
-83.6492
0
LINE
8
BLACK
6
CONTINUOUS
10
58.2804
20
-83.6492
11
58.1744
21
-83.7553
0
LINE
8
BLACK
6
CONTINUOUS
10
58.1744
20
-83.7553
11
58.163
21
-83.7646
0
LINE
8
BLACK
6
CONTINUOUS
10
58.163
20
-83.7646
11
58.15
21
-83.7716
0
LINE
8
BLACK
6
CONTINUOUS
10
58.15
20
-83.7716
11
58.136
21
-83.7758
0
LINE
8
BLACK
6
CONTINUOUS
10
58.136
20
-83.7758
11
58.1213
21
-83.7773
0
LINE
8
BLACK
6
CONTINUOUS
10
58.1213
20
-83.7773
11
58.1067
21
-83.7758
0
LINE
8
BLACK
6
CONTINUOUS
10
58.1067
20
-83.7758
11
58.0926
21
-83.7716
0
LINE
8
BLACK
6
CONTINUOUS
10
58.0926
20
-83.7716
11
58.0797
21
-83.7646
0
LINE
8
BLACK
6
CONTINUOUS
10
58.0797
20
-83.7646
11
58.0683
21
-83.7553
0
LINE
8
BLACK
6
CONTINUOUS
10
58.0683
20
-83.7553
11
57.1314
21
-82.8184
0
LINE
8
BLACK
6
CONTINUOUS
10
57.1314
20
-82.8184
11
57.122
21
-82.807
0
LINE
8
BLACK
6
CONTINUOUS
10
57.122
20
-82.807
11
57.1151
21
-82.794
0
LINE
8
BLACK
6
CONTINUOUS
10
57.1151
20
-82.794
11
57.1108
21
-82.78
0
LINE
8
BLACK
6
CONTINUOUS
10
57.1108
20
-82.78
11
57.1094
21
-82.7653
0
LINE
8
BLACK
6
CONTINUOUS
10
57.1094
20
-82.7653
11
57.1108
21
-82.7507
0
LINE
8
BLACK
6
CONTINUOUS
10
57.1108
20
-82.7507
11
57.1151
21
-82.7366
0
LINE
8
BLACK
6
CONTINUOUS
10
57.1151
20
-82.7366
11
57.122
21
-82.7237
0
LINE
8
BLACK
6
CONTINUOUS
10
57.122
20
-82.7237
11
57.1314
21
-82.7123
0
LINE
8
BLACK
6
CONTINUOUS
10
57.1314
20
-82.7123
11
57.2374
21
-82.6062
0
LINE
8
BLACK
6
CONTINUOUS
10
57.2374
20
-82.6062
11
57.2488
21
-82.5969
0
LINE
8
BLACK
6
CONTINUOUS
10
57.2488
20
-82.5969
11
57.2618
21
-82.59
0
LINE
8
BLACK
6
CONTINUOUS
10
57.2618
20
-82.59
11
57.2758
21
-82.5857
0
LINE
8
BLACK
6
CONTINUOUS
10
57.2758
20
-82.5857
11
57.2905
21
-82.5843
0
LINE
8
BLACK
6
CONTINUOUS
10
57.2905
20
-82.5843
11
57.3051
21
-82.5857
0
LINE
8
BLACK
6
CONTINUOUS
10
69.7242
20
-82.5857
11
69.7382
21
-82.59
0
LINE
8
BLACK
6
CONTINUOUS
10
69.7382
20
-82.59
11
69.7512
21
-82.5969
0
LINE
8
BLACK
6
CONTINUOUS
10
69.7512
20
-82.5969
11
69.7626
21
-82.6062
0
LINE
8
BLACK
6
CONTINUOUS
10
69.7626
20
-82.6062
11
69.8686
21
-82.7123
0
LINE
8
BLACK
6
CONTINUOUS
10
69.8686
20
-82.7123
11
69.878
21
-82.7237
0
LINE
8
BLACK
6
CONTINUOUS
10
69.878
20
-82.7237
11
69.8849
21
-82.7366
0
LINE
8
BLACK
6
CONTINUOUS
10
69.8849
20
-82.7366
11
69.8892
21
-82.7507
0
LINE
8
BLACK
6
CONTINUOUS
10
69.8892
20
-82.7507
11
69.8906
21
-82.7653
0
LINE
8
BLACK
6
CONTINUOUS
10
69.8906
20
-82.7653
11
69.8892
21
-82.78
0
LINE
8
BLACK
6
CONTINUOUS
10
69.8892
20
-82.78
11
69.8849
21
-82.794
0
LINE
8
BLACK
6
CONTINUOUS
10
69.8849
20
-82.794
11
69.878
21
-82.807
0
LINE
8
BLACK
6
CONTINUOUS
10
69.878
20
-82.807
11
69.8686
21
-82.8184
0
LINE
8
BLACK
6
CONTINUOUS
10
69.8686
20
-82.8184
11
68.9317
21
-83.7553
0
LINE
8
BLACK
6
CONTINUOUS
10
68.9317
20
-83.7553
11
68.9204
21
-83.7646
0
LINE
8
BLACK
6
CONTINUOUS
10
68.9204
20
-83.7646
11
68.9074
21
-83.7716
0
LINE
8
BLACK
6
CONTINUOUS
10
68.9074
20
-83.7716
11
68.8933
21
-83.7758
0
LINE
8
BLACK
6
CONTINUOUS
10
68.8933
20
-83.7758
11
68.8787
21
-83.7773
0
LINE
8
BLACK
6
CONTINUOUS
10
68.8787
20
-83.7773
11
68.8641
21
-83.7758
0
LINE
8
BLACK
6
CONTINUOUS
10
68.8641
20
-83.7758
11
68.85
21
-83.7716
0
LINE
8
BLACK
6
CONTINUOUS
10
68.85
20
-83.7716
11
68.837
21
-83.7646
0
LINE
8
BLACK
6
CONTINUOUS
10
68.837
20
-83.7646
11
68.8257
21
-83.7553
0
LINE
8
BLACK
6
CONTINUOUS
10
68.8257
20
-83.7553
11
68.7196
21
-83.6492
0
LINE
8
BLACK
6
CONTINUOUS
10
68.7196
20
-83.6492
11
68.7103
21
-83.6379
0
LINE
8
BLACK
6
CONTINUOUS
10
68.7103
20
-83.6379
11
68.7033
21
-83.6249
0
LINE
8
BLACK
6
CONTINUOUS
10
68.7033
20
-83.6249
11
68.6991
21
-83.6108
0
LINE
8
BLACK
6
CONTINUOUS
10
68.6991
20
-83.6108
11
68.6976
21
-83.5962
0
LINE
8
BLACK
6
CONTINUOUS
10
68.6976
20
-83.5962
11
68.6991
21
-83.5816
0
LINE
8
BLACK
6
CONTINUOUS
10
68.6991
20
-83.5816
11
68.7033
21
-83.5675
0
LINE
8
BLACK
6
CONTINUOUS
10
68.7033
20
-83.5675
11
68.7103
21
-83.5545
0
LINE
8
BLACK
6
CONTINUOUS
10
68.7103
20
-83.5545
11
68.7196
21
-83.5432
0
LINE
8
BLACK
6
CONTINUOUS
10
68.7196
20
-83.5432
11
69.6565
21
-82.6062
0
LINE
8
BLACK
6
CONTINUOUS
10
69.6565
20
-82.6062
11
69.6679
21
-82.5969
0
LINE
8
BLACK
6
CONTINUOUS
10
69.6679
20
-82.5969
11
69.6808
21
-82.59
0
LINE
8
BLACK
6
CONTINUOUS
10
69.6808
20
-82.59
11
69.6949
21
-82.5857
0
LINE
8
BLACK
6
CONTINUOUS
10
69.6949
20
-82.5857
11
69.7095
21
-82.5843
0
LINE
8
BLACK
6
CONTINUOUS
10
69.7095
20
-82.5843
11
69.7242
21
-82.5857
0
LINE
8
BLACK
6
CONTINUOUS
10
51.9035
20
-82.7861
11
51.9312
21
-82.7945
0
LINE
8
BLACK
6
CONTINUOUS
10
51.9312
20
-82.7945
11
51.9567
21
-82.8081
0
LINE
8
BLACK
6
CONTINUOUS
10
51.9567
20
-82.8081
11
51.979
21
-82.8265
0
LINE
8
BLACK
6
CONTINUOUS
10
51.979
20
-82.8265
11
52.1876
21
-83.0351
0
LINE
8
BLACK
6
CONTINUOUS
10
52.1876
20
-83.0351
11
52.206
21
-83.0574
0
LINE
8
BLACK
6
CONTINUOUS
10
52.206
20
-83.0574
11
52.2196
21
-83.0829
0
LINE
8
BLACK
6
CONTINUOUS
10
52.2196
20
-83.0829
11
52.228
21
-83.1106
0
LINE
8
BLACK
6
CONTINUOUS
10
52.228
20
-83.1106
11
52.2308
21
-83.1394
0
LINE
8
BLACK
6
CONTINUOUS
10
52.2308
20
-83.1394
11
52.228
21
-83.1682
0
LINE
8
BLACK
6
CONTINUOUS
10
52.228
20
-83.1682
11
52.2196
21
-83.1958
0
LINE
8
BLACK
6
CONTINUOUS
10
52.2196
20
-83.1958
11
52.206
21
-83.2213
0
LINE
8
BLACK
6
CONTINUOUS
10
52.206
20
-83.2213
11
52.1876
21
-83.2437
0
LINE
8
BLACK
6
CONTINUOUS
10
52.1876
20
-83.2437
11
51.9437
21
-83.4876
0
LINE
8
BLACK
6
CONTINUOUS
10
51.9437
20
-83.4876
11
51.9213
21
-83.506
0
LINE
8
BLACK
6
CONTINUOUS
10
51.9213
20
-83.506
11
51.8958
21
-83.5196
0
LINE
8
BLACK
6
CONTINUOUS
10
51.8958
20
-83.5196
11
51.8682
21
-83.528
0
LINE
8
BLACK
6
CONTINUOUS
10
51.8682
20
-83.528
11
51.8394
21
-83.5308
0
LINE
8
BLACK
6
CONTINUOUS
10
51.8394
20
-83.5308
11
51.8106
21
-83.528
0
LINE
8
BLACK
6
CONTINUOUS
10
51.8106
20
-83.528
11
51.7829
21
-83.5196
0
LINE
8
BLACK
6
CONTINUOUS
10
51.7829
20
-83.5196
11
51.7574
21
-83.506
0
LINE
8
BLACK
6
CONTINUOUS
10
51.7574
20
-83.506
11
51.7351
21
-83.4876
0
LINE
8
BLACK
6
CONTINUOUS
10
51.7351
20
-83.4876
11
51.5265
21
-83.279
0
LINE
8
BLACK
6
CONTINUOUS
10
51.5265
20
-83.279
11
51.5081
21
-83.2567
0
LINE
8
BLACK
6
CONTINUOUS
10
51.5081
20
-83.2567
11
51.4945
21
-83.2312
0
LINE
8
BLACK
6
CONTINUOUS
10
51.4945
20
-83.2312
11
51.4861
21
-83.2035
0
LINE
8
BLACK
6
CONTINUOUS
10
51.4861
20
-83.2035
11
51.4833
21
-83.1747
0
LINE
8
BLACK
6
CONTINUOUS
10
51.4833
20
-83.1747
11
51.4861
21
-83.146
0
LINE
8
BLACK
6
CONTINUOUS
10
51.4861
20
-83.146
11
51.4945
21
-83.1183
0
LINE
8
BLACK
6
CONTINUOUS
10
51.4945
20
-83.1183
11
51.5081
21
-83.0928
0
LINE
8
BLACK
6
CONTINUOUS
10
51.5081
20
-83.0928
11
51.5265
21
-83.0704
0
LINE
8
BLACK
6
CONTINUOUS
10
51.5265
20
-83.0704
11
51.7704
21
-82.8265
0
LINE
8
BLACK
6
CONTINUOUS
10
51.7704
20
-82.8265
11
51.7928
21
-82.8081
0
LINE
8
BLACK
6
CONTINUOUS
10
51.7928
20
-82.8081
11
51.8183
21
-82.7945
0
LINE
8
BLACK
6
CONTINUOUS
10
51.8183
20
-82.7945
11
51.846
21
-82.7861
0
LINE
8
BLACK
6
CONTINUOUS
10
51.846
20
-82.7861
11
51.8747
21
-82.7833
0
LINE
8
BLACK
6
CONTINUOUS
10
51.8747
20
-82.7833
11
51.9035
21
-82.7861
0
LINE
8
BLACK
6
CONTINUOUS
10
66.9035
20
-82.7861
11
66.9312
21
-82.7945
0
LINE
8
BLACK
6
CONTINUOUS
10
66.9312
20
-82.7945
11
66.9567
21
-82.8081
0
LINE
8
BLACK
6
CONTINUOUS
10
66.9567
20
-82.8081
11
66.979
21
-82.8265
0
LINE
8
BLACK
6
CONTINUOUS
10
66.979
20
-82.8265
11
67.1876
21
-83.0351
0
LINE
8
BLACK
6
CONTINUOUS
10
67.1876
20
-83.0351
11
67.206
21
-83.0574
0
LINE
8
BLACK
6
CONTINUOUS
10
67.206
20
-83.0574
11
67.2196
21
-83.0829
0
LINE
8
BLACK
6
CONTINUOUS
10
67.2196
20
-83.0829
11
67.228
21
-83.1106
0
LINE
8
BLACK
6
CONTINUOUS
10
67.228
20
-83.1106
11
67.2308
21
-83.1394
0
LINE
8
BLACK
6
CONTINUOUS
10
67.2308
20
-83.1394
11
67.228
21
-83.1682
0
LINE
8
BLACK
6
CONTINUOUS
10
67.228
20
-83.1682
11
67.2196
21
-83.1958
0
LINE
8
BLACK
6
CONTINUOUS
10
67.2196
20
-83.1958
11
67.206
21
-83.2213
0
LINE
8
BLACK
6
CONTINUOUS
10
67.206
20
-83.2213
11
67.1876
21
-83.2437
0
LINE
8
BLACK
6
CONTINUOUS
10
67.1876
20
-83.2437
11
66.9437
21
-83.4876
0
LINE
8
BLACK
6
CONTINUOUS
10
66.9437
20
-83.4876
11
66.9213
21
-83.506
0
LINE
8
BLACK
6
CONTINUOUS
10
66.9213
20
-83.506
11
66.8958
21
-83.5196
0
LINE
8
BLACK
6
CONTINUOUS
10
66.8958
20
-83.5196
11
66.8682
21
-83.528
0
LINE
8
BLACK
6
CONTINUOUS
10
66.8682
20
-83.528
11
66.8394
21
-83.5308
0
LINE
8
BLACK
6
CONTINUOUS
10
66.8394
20
-83.5308
11
66.8106
21
-83.528
0
LINE
8
BLACK
6
CONTINUOUS
10
66.8106
20
-83.528
11
66.7829
21
-83.5196
0
LINE
8
BLACK
6
CONTINUOUS
10
66.7829
20
-83.5196
11
66.7574
21
-83.506
0
LINE
8
BLACK
6
CONTINUOUS
10
66.7574
20
-83.506
11
66.7351
21
-83.4876
0
LINE
8
BLACK
6
CONTINUOUS
10
66.7351
20
-83.4876
11
66.5265
21
-83.279
0
LINE
8
BLACK
6
CONTINUOUS
10
66.5265
20
-83.279
11
66.5082
21
-83.2567
0
LINE
8
BLACK
6
CONTINUOUS
10
66.5082
20
-83.2567
11
66.4945
21
-83.2312
0
LINE
8
BLACK
6
CONTINUOUS
10
66.4945
20
-83.2312
11
66.4861
21
-83.2035
0
LINE
8
BLACK
6
CONTINUOUS
10
66.4861
20
-83.2035
11
66.4833
21
-83.1747
0
LINE
8
BLACK
6
CONTINUOUS
10
66.4833
20
-83.1747
11
66.4861
21
-83.146
0
LINE
8
BLACK
6
CONTINUOUS
10
66.4861
20
-83.146
11
66.4945
21
-83.1183
0
LINE
8
BLACK
6
CONTINUOUS
10
66.4945
20
-83.1183
11
66.5082
21
-83.0928
0
LINE
8
BLACK
6
CONTINUOUS
10
66.5082
20
-83.0928
11
66.5265
21
-83.0704
0
LINE
8
BLACK
6
CONTINUOUS
10
66.5265
20
-83.0704
11
66.7705
21
-82.8265
0
LINE
8
BLACK
6
CONTINUOUS
10
66.7705
20
-82.8265
11
66.7928
21
-82.8081
0
LINE
8
BLACK
6
CONTINUOUS
10
66.7928
20
-82.8081
11
66.8183
21
-82.7945
0
LINE
8
BLACK
6
CONTINUOUS
10
66.8183
20
-82.7945
11
66.846
21
-82.7861
0
LINE
8
BLACK
6
CONTINUOUS
10
66.846
20
-82.7861
11
66.8747
21
-82.7833
0
LINE
8
BLACK
6
CONTINUOUS
10
66.8747
20
-82.7833
11
66.9035
21
-82.7861
0
LINE
8
BLACK
6
CONTINUOUS
10
54.3706
20
-82.2322
11
54.3847
21
-82.2364
0
LINE
8
BLACK
6
CONTINUOUS
10
54.3847
20
-82.2364
11
54.3976
21
-82.2434
0
LINE
8
BLACK
6
CONTINUOUS
10
54.3976
20
-82.2434
11
54.409
21
-82.2527
0
LINE
8
BLACK
6
CONTINUOUS
10
54.409
20
-82.2527
11
54.5151
21
-82.3588
0
LINE
8
BLACK
6
CONTINUOUS
10
54.5151
20
-82.3588
11
54.5244
21
-82.3701
0
LINE
8
BLACK
6
CONTINUOUS
10
54.5244
20
-82.3701
11
54.5313
21
-82.3831
0
LINE
8
BLACK
6
CONTINUOUS
10
54.5313
20
-82.3831
11
54.5356
21
-82.3972
0
LINE
8
BLACK
6
CONTINUOUS
10
54.5356
20
-82.3972
11
54.537
21
-82.4118
0
LINE
8
BLACK
6
CONTINUOUS
10
54.537
20
-82.4118
11
54.5356
21
-82.4264
0
LINE
8
BLACK
6
CONTINUOUS
10
54.5356
20
-82.4264
11
54.5313
21
-82.4405
0
LINE
8
BLACK
6
CONTINUOUS
10
54.5313
20
-82.4405
11
54.5244
21
-82.4535
0
LINE
8
BLACK
6
CONTINUOUS
10
54.5244
20
-82.4535
11
54.5151
21
-82.4648
0
LINE
8
BLACK
6
CONTINUOUS
10
54.5151
20
-82.4648
11
53.5782
21
-83.4017
0
LINE
8
BLACK
6
CONTINUOUS
10
53.5782
20
-83.4017
11
53.5668
21
-83.4111
0
LINE
8
BLACK
6
CONTINUOUS
10
53.5668
20
-83.4111
11
53.5538
21
-83.418
0
LINE
8
BLACK
6
CONTINUOUS
10
53.5538
20
-83.418
11
53.5398
21
-83.4223
0
LINE
8
BLACK
6
CONTINUOUS
10
53.5398
20
-83.4223
11
53.5251
21
-83.4237
0
LINE
8
BLACK
6
CONTINUOUS
10
53.5251
20
-83.4237
11
53.5105
21
-83.4223
0
LINE
8
BLACK
6
CONTINUOUS
10
53.5105
20
-83.4223
11
53.4964
21
-83.418
0
LINE
8
BLACK
6
CONTINUOUS
10
53.4964
20
-83.418
11
53.4835
21
-83.4111
0
LINE
8
BLACK
6
CONTINUOUS
10
53.4835
20
-83.4111
11
53.4721
21
-83.4017
0
LINE
8
BLACK
6
CONTINUOUS
10
53.4721
20
-83.4017
11
53.366
21
-83.2957
0
LINE
8
BLACK
6
CONTINUOUS
10
53.366
20
-83.2957
11
53.3567
21
-83.2843
0
LINE
8
BLACK
6
CONTINUOUS
10
53.3567
20
-83.2843
11
53.3498
21
-83.2713
0
LINE
8
BLACK
6
CONTINUOUS
10
53.3498
20
-83.2713
11
53.3455
21
-83.2573
0
LINE
8
BLACK
6
CONTINUOUS
10
53.3455
20
-83.2573
11
53.3441
21
-83.2426
0
LINE
8
BLACK
6
CONTINUOUS
10
53.3441
20
-83.2426
11
53.3455
21
-83.228
0
LINE
8
BLACK
6
CONTINUOUS
10
53.3455
20
-83.228
11
53.3498
21
-83.2139
0
LINE
8
BLACK
6
CONTINUOUS
10
53.3498
20
-83.2139
11
53.3567
21
-83.201
0
LINE
8
BLACK
6
CONTINUOUS
10
53.3567
20
-83.201
11
53.366
21
-83.1896
0
LINE
8
BLACK
6
CONTINUOUS
10
53.366
20
-83.1896
11
54.3029
21
-82.2527
0
LINE
8
BLACK
6
CONTINUOUS
10
54.3029
20
-82.2527
11
54.3143
21
-82.2434
0
LINE
8
BLACK
6
CONTINUOUS
10
54.3143
20
-82.2434
11
54.3273
21
-82.2364
0
LINE
8
BLACK
6
CONTINUOUS
10
54.3273
20
-82.2364
11
54.3413
21
-82.2322
0
LINE
8
BLACK
6
CONTINUOUS
10
54.3413
20
-82.2322
11
54.356
21
-82.2307
0
LINE
8
BLACK
6
CONTINUOUS
10
54.356
20
-82.2307
11
54.3706
21
-82.2322
0
LINE
8
BLACK
6
CONTINUOUS
10
57.6587
20
-82.2322
11
57.6727
21
-82.2364
0
LINE
8
BLACK
6
CONTINUOUS
10
57.6727
20
-82.2364
11
57.6857
21
-82.2434
0
LINE
8
BLACK
6
CONTINUOUS
10
57.6857
20
-82.2434
11
57.6971
21
-82.2527
0
LINE
8
BLACK
6
CONTINUOUS
10
57.6971
20
-82.2527
11
58.634
21
-83.1896
0
LINE
8
BLACK
6
CONTINUOUS
10
58.634
20
-83.1896
11
58.6433
21
-83.201
0
LINE
8
BLACK
6
CONTINUOUS
10
58.6433
20
-83.201
11
58.6502
21
-83.2139
0
LINE
8
BLACK
6
CONTINUOUS
10
58.6502
20
-83.2139
11
58.6545
21
-83.228
0
LINE
8
BLACK
6
CONTINUOUS
10
58.6545
20
-83.228
11
58.6559
21
-83.2426
0
LINE
8
BLACK
6
CONTINUOUS
10
58.6559
20
-83.2426
11
58.6545
21
-83.2573
0
LINE
8
BLACK
6
CONTINUOUS
10
58.6545
20
-83.2573
11
58.6502
21
-83.2713
0
LINE
8
BLACK
6
CONTINUOUS
10
58.6502
20
-83.2713
11
58.6433
21
-83.2843
0
LINE
8
BLACK
6
CONTINUOUS
10
58.6433
20
-83.2843
11
58.634
21
-83.2957
0
LINE
8
BLACK
6
CONTINUOUS
10
58.634
20
-83.2957
11
58.5279
21
-83.4017
0
LINE
8
BLACK
6
CONTINUOUS
10
58.5279
20
-83.4017
11
58.5165
21
-83.4111
0
LINE
8
BLACK
6
CONTINUOUS
10
58.5165
20
-83.4111
11
58.5036
21
-83.418
0
LINE
8
BLACK
6
CONTINUOUS
10
58.5036
20
-83.418
11
58.4895
21
-83.4223
0
LINE
8
BLACK
6
CONTINUOUS
10
58.4895
20
-83.4223
11
58.4749
21
-83.4237
0
LINE
8
BLACK
6
CONTINUOUS
10
58.4749
20
-83.4237
11
58.4602
21
-83.4223
0
LINE
8
BLACK
6
CONTINUOUS
10
58.4602
20
-83.4223
11
58.4462
21
-83.418
0
LINE
8
BLACK
6
CONTINUOUS
10
58.4462
20
-83.418
11
58.4332
21
-83.4111
0
LINE
8
BLACK
6
CONTINUOUS
10
58.4332
20
-83.4111
11
58.4218
21
-83.4017
0
LINE
8
BLACK
6
CONTINUOUS
10
58.4218
20
-83.4017
11
57.4849
21
-82.4648
0
LINE
8
BLACK
6
CONTINUOUS
10
57.4849
20
-82.4648
11
57.4756
21
-82.4535
0
LINE
8
BLACK
6
CONTINUOUS
10
57.4756
20
-82.4535
11
57.4687
21
-82.4405
0
LINE
8
BLACK
6
CONTINUOUS
10
57.4687
20
-82.4405
11
57.4644
21
-82.4264
0
LINE
8
BLACK
6
CONTINUOUS
10
57.4644
20
-82.4264
11
57.463
21
-82.4118
0
LINE
8
BLACK
6
CONTINUOUS
10
57.463
20
-82.4118
11
57.4644
21
-82.3972
0
LINE
8
BLACK
6
CONTINUOUS
10
57.4644
20
-82.3972
11
57.4687
21
-82.3831
0
LINE
8
BLACK
6
CONTINUOUS
10
57.4687
20
-82.3831
11
57.4756
21
-82.3701
0
LINE
8
BLACK
6
CONTINUOUS
10
57.4756
20
-82.3701
11
57.4849
21
-82.3588
0
LINE
8
BLACK
6
CONTINUOUS
10
57.4849
20
-82.3588
11
57.591
21
-82.2527
0
LINE
8
BLACK
6
CONTINUOUS
10
57.591
20
-82.2527
11
57.6024
21
-82.2434
0
LINE
8
BLACK
6
CONTINUOUS
10
57.6024
20
-82.2434
11
57.6153
21
-82.2364
0
LINE
8
BLACK
6
CONTINUOUS
10
57.6153
20
-82.2364
11
57.6294
21
-82.2322
0
LINE
8
BLACK
6
CONTINUOUS
10
57.6294
20
-82.2322
11
57.644
21
-82.2307
0
LINE
8
BLACK
6
CONTINUOUS
10
57.644
20
-82.2307
11
57.6587
21
-82.2322
0
LINE
8
BLACK
6
CONTINUOUS
10
69.3706
20
-82.2322
11
69.3847
21
-82.2364
0
LINE
8
BLACK
6
CONTINUOUS
10
69.3847
20
-82.2364
11
69.3977
21
-82.2434
0
LINE
8
BLACK
6
CONTINUOUS
10
69.3977
20
-82.2434
11
69.409
21
-82.2527
0
LINE
8
BLACK
6
CONTINUOUS
10
69.409
20
-82.2527
11
69.5151
21
-82.3588
0
LINE
8
BLACK
6
CONTINUOUS
10
69.5151
20
-82.3588
11
69.5244
21
-82.3701
0
LINE
8
BLACK
6
CONTINUOUS
10
69.5244
20
-82.3701
11
69.5314
21
-82.3831
0
LINE
8
BLACK
6
CONTINUOUS
10
69.5314
20
-82.3831
11
69.5356
21
-82.3972
0
LINE
8
BLACK
6
CONTINUOUS
10
69.5356
20
-82.3972
11
69.5371
21
-82.4118
0
LINE
8
BLACK
6
CONTINUOUS
10
69.5371
20
-82.4118
11
69.5356
21
-82.4264
0
LINE
8
BLACK
6
CONTINUOUS
10
69.5356
20
-82.4264
11
69.5314
21
-82.4405
0
LINE
8
BLACK
6
CONTINUOUS
10
69.5314
20
-82.4405
11
69.5244
21
-82.4535
0
LINE
8
BLACK
6
CONTINUOUS
10
69.5244
20
-82.4535
11
69.5151
21
-82.4648
0
LINE
8
BLACK
6
CONTINUOUS
10
69.5151
20
-82.4648
11
68.5782
21
-83.4017
0
LINE
8
BLACK
6
CONTINUOUS
10
68.5782
20
-83.4017
11
68.5668
21
-83.4111
0
LINE
8
BLACK
6
CONTINUOUS
10
68.5668
20
-83.4111
11
68.5538
21
-83.418
0
LINE
8
BLACK
6
CONTINUOUS
10
68.5538
20
-83.418
11
68.5398
21
-83.4223
0
LINE
8
BLACK
6
CONTINUOUS
10
68.5398
20
-83.4223
11
68.5251
21
-83.4237
0
LINE
8
BLACK
6
CONTINUOUS
10
68.5251
20
-83.4237
11
68.5105
21
-83.4223
0
LINE
8
BLACK
6
CONTINUOUS
10
68.5105
20
-83.4223
11
68.4964
21
-83.418
0
LINE
8
BLACK
6
CONTINUOUS
10
68.4964
20
-83.418
11
68.4835
21
-83.4111
0
LINE
8
BLACK
6
CONTINUOUS
10
68.4835
20
-83.4111
11
68.4721
21
-83.4017
0
LINE
8
BLACK
6
CONTINUOUS
10
68.4721
20
-83.4017
11
68.366
21
-83.2957
0
LINE
8
BLACK
6
CONTINUOUS
10
68.366
20
-83.2957
11
68.3567
21
-83.2843
0
LINE
8
BLACK
6
CONTINUOUS
10
68.3567
20
-83.2843
11
68.3498
21
-83.2713
0
LINE
8
BLACK
6
CONTINUOUS
10
68.3498
20
-83.2713
11
68.3455
21
-83.2573
0
LINE
8
BLACK
6
CONTINUOUS
10
68.3455
20
-83.2573
11
68.3441
21
-83.2426
0
LINE
8
BLACK
6
CONTINUOUS
10
68.3441
20
-83.2426
11
68.3455
21
-83.228
0
LINE
8
BLACK
6
CONTINUOUS
10
68.3455
20
-83.228
11
68.3498
21
-83.2139
0
LINE
8
BLACK
6
CONTINUOUS
10
68.3498
20
-83.2139
11
68.3567
21
-83.201
0
LINE
8
BLACK
6
CONTINUOUS
10
68.3567
20
-83.201
11
68.366
21
-83.1896
0
LINE
8
BLACK
6
CONTINUOUS
10
68.366
20
-83.1896
11
69.303
21
-82.2527
0
LINE
8
BLACK
6
CONTINUOUS
10
69.303
20
-82.2527
11
69.3143
21
-82.2434
0
LINE
8
BLACK
6
CONTINUOUS
10
69.3143
20
-82.2434
11
69.3273
21
-82.2364
0
LINE
8
BLACK
6
CONTINUOUS
10
69.3273
20
-82.2364
11
69.3414
21
-82.2322
0
LINE
8
BLACK
6
CONTINUOUS
10
69.3414
20
-82.2322
11
69.356
21
-82.2307
0
LINE
8
BLACK
6
CONTINUOUS
10
69.356
20
-82.2307
11
69.3706
21
-82.2322
0
LINE
8
BLACK
6
CONTINUOUS
10
72.6587
20
-82.2322
11
72.6727
21
-82.2364
0
LINE
8
BLACK
6
CONTINUOUS
10
72.6727
20
-82.2364
11
72.6857
21
-82.2434
0
LINE
8
BLACK
6
CONTINUOUS
10
72.6857
20
-82.2434
11
72.6971
21
-82.2527
0
LINE
8
BLACK
6
CONTINUOUS
10
72.6971
20
-82.2527
11
73.634
21
-83.1896
0
LINE
8
BLACK
6
CONTINUOUS
10
73.634
20
-83.1896
11
73.6433
21
-83.201
0
LINE
8
BLACK
6
CONTINUOUS
10
73.6433
20
-83.201
11
73.6502
21
-83.2139
0
LINE
8
BLACK
6
CONTINUOUS
10
73.6502
20
-83.2139
11
73.6545
21
-83.228
0
LINE
8
BLACK
6
CONTINUOUS
10
73.6545
20
-83.228
11
73.656
21
-83.2426
0
LINE
8
BLACK
6
CONTINUOUS
10
73.656
20
-83.2426
11
73.6545
21
-83.2573
0
LINE
8
BLACK
6
CONTINUOUS
10
73.6545
20
-83.2573
11
73.6502
21
-83.2713
0
LINE
8
BLACK
6
CONTINUOUS
10
73.6502
20
-83.2713
11
73.6433
21
-83.2843
0
LINE
8
BLACK
6
CONTINUOUS
10
73.6433
20
-83.2843
11
73.634
21
-83.2957
0
LINE
8
BLACK
6
CONTINUOUS
10
73.634
20
-83.2957
11
73.5279
21
-83.4017
0
LINE
8
BLACK
6
CONTINUOUS
10
73.5279
20
-83.4017
11
73.5166
21
-83.4111
0
LINE
8
BLACK
6
CONTINUOUS
10
73.5166
20
-83.4111
11
73.5036
21
-83.418
0
LINE
8
BLACK
6
CONTINUOUS
10
73.5036
20
-83.418
11
73.4895
21
-83.4223
0
LINE
8
BLACK
6
CONTINUOUS
10
73.4895
20
-83.4223
11
73.4749
21
-83.4237
0
LINE
8
BLACK
6
CONTINUOUS
10
73.4749
20
-83.4237
11
73.4603
21
-83.4223
0
LINE
8
BLACK
6
CONTINUOUS
10
73.4603
20
-83.4223
11
73.4462
21
-83.418
0
LINE
8
BLACK
6
CONTINUOUS
10
73.4462
20
-83.418
11
73.4332
21
-83.4111
0
LINE
8
BLACK
6
CONTINUOUS
10
73.4332
20
-83.4111
11
73.4219
21
-83.4017
0
LINE
8
BLACK
6
CONTINUOUS
10
73.4219
20
-83.4017
11
72.4849
21
-82.4648
0
LINE
8
BLACK
6
CONTINUOUS
10
72.4849
20
-82.4648
11
72.4756
21
-82.4535
0
LINE
8
BLACK
6
CONTINUOUS
10
72.4756
20
-82.4535
11
72.4687
21
-82.4405
0
LINE
8
BLACK
6
CONTINUOUS
10
72.4687
20
-82.4405
11
72.4644
21
-82.4264
0
LINE
8
BLACK
6
CONTINUOUS
10
72.4644
20
-82.4264
11
72.463
21
-82.4118
0
LINE
8
BLACK
6
CONTINUOUS
10
72.463
20
-82.4118
11
72.4644
21
-82.3972
0
LINE
8
BLACK
6
CONTINUOUS
10
72.4644
20
-82.3972
11
72.4687
21
-82.3831
0
LINE
8
BLACK
6
CONTINUOUS
10
72.4687
20
-82.3831
11
72.4756
21
-82.3701
0
LINE
8
BLACK
6
CONTINUOUS
10
72.4756
20
-82.3701
11
72.4849
21
-82.3588
0
LINE
8
BLACK
6
CONTINUOUS
10
72.4849
20
-82.3588
11
72.591
21
-82.2527
0
LINE
8
BLACK
6
CONTINUOUS
10
72.591
20
-82.2527
11
72.6024
21
-82.2434
0
LINE
8
BLACK
6
CONTINUOUS
10
72.6024
20
-82.2434
11
72.6153
21
-82.2364
0
LINE
8
BLACK
6
CONTINUOUS
10
72.6153
20
-82.2364
11
72.6294
21
-82.2322
0
LINE
8
BLACK
6
CONTINUOUS
10
72.6294
20
-82.2322
11
72.644
21
-82.2307
0
LINE
8
BLACK
6
CONTINUOUS
10
72.644
20
-82.2307
11
72.6587
21
-82.2322
0
LINE
8
BLACK
6
CONTINUOUS
10
69.0171
20
-81.8786
11
69.0311
21
-81.8829
0
LINE
8
BLACK
6
CONTINUOUS
10
69.0311
20
-81.8829
11
69.0441
21
-81.8898
0
LINE
8
BLACK
6
CONTINUOUS
10
69.0441
20
-81.8898
11
69.0555
21
-81.8991
0
LINE
8
BLACK
6
CONTINUOUS
10
69.0555
20
-81.8991
11
69.1615
21
-82.0052
0
LINE
8
BLACK
6
CONTINUOUS
10
69.1615
20
-82.0052
11
69.1709
21
-82.0166
0
LINE
8
BLACK
6
CONTINUOUS
10
69.1709
20
-82.0166
11
69.1778
21
-82.0295
0
LINE
8
BLACK
6
CONTINUOUS
10
69.1778
20
-82.0295
11
69.1821
21
-82.0436
0
LINE
8
BLACK
6
CONTINUOUS
10
69.1821
20
-82.0436
11
69.1835
21
-82.0582
0
LINE
8
BLACK
6
CONTINUOUS
10
69.1835
20
-82.0582
11
69.1821
21
-82.0729
0
LINE
8
BLACK
6
CONTINUOUS
10
69.1821
20
-82.0729
11
69.1778
21
-82.0869
0
LINE
8
BLACK
6
CONTINUOUS
10
69.1778
20
-82.0869
11
69.1709
21
-82.0999
0
LINE
8
BLACK
6
CONTINUOUS
10
69.1709
20
-82.0999
11
69.1615
21
-82.1113
0
LINE
8
BLACK
6
CONTINUOUS
10
69.1615
20
-82.1113
11
68.2246
21
-83.0482
0
LINE
8
BLACK
6
CONTINUOUS
10
68.2246
20
-83.0482
11
68.2133
21
-83.0575
0
LINE
8
BLACK
6
CONTINUOUS
10
68.2133
20
-83.0575
11
68.2003
21
-83.0644
0
LINE
8
BLACK
6
CONTINUOUS
10
68.2003
20
-83.0644
11
68.1862
21
-83.0687
0
LINE
8
BLACK
6
CONTINUOUS
10
68.1862
20
-83.0687
11
68.1716
21
-83.0702
0
LINE
8
BLACK
6
CONTINUOUS
10
68.1716
20
-83.0702
11
68.157
21
-83.0687
0
LINE
8
BLACK
6
CONTINUOUS
10
68.157
20
-83.0687
11
68.1429
21
-83.0644
0
LINE
8
BLACK
6
CONTINUOUS
10
68.1429
20
-83.0644
11
68.1299
21
-83.0575
0
LINE
8
BLACK
6
CONTINUOUS
10
68.1299
20
-83.0575
11
68.1186
21
-83.0482
0
LINE
8
BLACK
6
CONTINUOUS
10
68.1186
20
-83.0482
11
68.0125
21
-82.9421
0
LINE
8
BLACK
6
CONTINUOUS
10
68.0125
20
-82.9421
11
68.0032
21
-82.9308
0
LINE
8
BLACK
6
CONTINUOUS
10
68.0032
20
-82.9308
11
67.9962
21
-82.9178
0
LINE
8
BLACK
6
CONTINUOUS
10
67.9962
20
-82.9178
11
67.992
21
-82.9037
0
LINE
8
BLACK
6
CONTINUOUS
10
67.992
20
-82.9037
11
67.9905
21
-82.8891
0
LINE
8
BLACK
6
CONTINUOUS
10
67.9905
20
-82.8891
11
67.992
21
-82.8745
0
LINE
8
BLACK
6
CONTINUOUS
10
67.992
20
-82.8745
11
67.9962
21
-82.8604
0
LINE
8
BLACK
6
CONTINUOUS
10
67.9962
20
-82.8604
11
68.0032
21
-82.8474
0
LINE
8
BLACK
6
CONTINUOUS
10
68.0032
20
-82.8474
11
68.0125
21
-82.8361
0
LINE
8
BLACK
6
CONTINUOUS
10
68.0125
20
-82.8361
11
68.9494
21
-81.8991
0
LINE
8
BLACK
6
CONTINUOUS
10
68.9494
20
-81.8991
11
68.9608
21
-81.8898
0
LINE
8
BLACK
6
CONTINUOUS
10
68.9608
20
-81.8898
11
68.9737
21
-81.8829
0
LINE
8
BLACK
6
CONTINUOUS
10
68.9737
20
-81.8829
11
68.9878
21
-81.8786
0
LINE
8
BLACK
6
CONTINUOUS
10
68.9878
20
-81.8786
11
69.0024
21
-81.8772
0
LINE
8
BLACK
6
CONTINUOUS
10
69.0024
20
-81.8772
11
69.0171
21
-81.8786
0
LINE
8
BLACK
6
CONTINUOUS
10
54.0171
20
-81.8786
11
54.0311
21
-81.8829
0
LINE
8
BLACK
6
CONTINUOUS
10
54.0311
20
-81.8829
11
54.0441
21
-81.8898
0
LINE
8
BLACK
6
CONTINUOUS
10
54.0441
20
-81.8898
11
54.0555
21
-81.8991
0
LINE
8
BLACK
6
CONTINUOUS
10
54.0555
20
-81.8991
11
54.1615
21
-82.0052
0
LINE
8
BLACK
6
CONTINUOUS
10
54.1615
20
-82.0052
11
54.1708
21
-82.0166
0
LINE
8
BLACK
6
CONTINUOUS
10
54.1708
20
-82.0166
11
54.1778
21
-82.0295
0
LINE
8
BLACK
6
CONTINUOUS
10
54.1778
20
-82.0295
11
54.182
21
-82.0436
0
LINE
8
BLACK
6
CONTINUOUS
10
54.182
20
-82.0436
11
54.1835
21
-82.0582
0
LINE
8
BLACK
6
CONTINUOUS
10
54.1835
20
-82.0582
11
54.182
21
-82.0729
0
LINE
8
BLACK
6
CONTINUOUS
10
54.182
20
-82.0729
11
54.1778
21
-82.0869
0
LINE
8
BLACK
6
CONTINUOUS
10
54.1778
20
-82.0869
11
54.1708
21
-82.0999
0
LINE
8
BLACK
6
CONTINUOUS
10
54.1708
20
-82.0999
11
54.1615
21
-82.1113
0
LINE
8
BLACK
6
CONTINUOUS
10
54.1615
20
-82.1113
11
53.2246
21
-83.0482
0
LINE
8
BLACK
6
CONTINUOUS
10
53.2246
20
-83.0482
11
53.2132
21
-83.0575
0
LINE
8
BLACK
6
CONTINUOUS
10
53.2132
20
-83.0575
11
53.2003
21
-83.0644
0
LINE
8
BLACK
6
CONTINUOUS
10
53.2003
20
-83.0644
11
53.1862
21
-83.0687
0
LINE
8
BLACK
6
CONTINUOUS
10
53.1862
20
-83.0687
11
53.1716
21
-83.0702
0
LINE
8
BLACK
6
CONTINUOUS
10
53.1716
20
-83.0702
11
53.1569
21
-83.0687
0
LINE
8
BLACK
6
CONTINUOUS
10
53.1569
20
-83.0687
11
53.1429
21
-83.0644
0
LINE
8
BLACK
6
CONTINUOUS
10
53.1429
20
-83.0644
11
53.1299
21
-83.0575
0
LINE
8
BLACK
6
CONTINUOUS
10
53.1299
20
-83.0575
11
53.1185
21
-83.0482
0
LINE
8
BLACK
6
CONTINUOUS
10
53.1185
20
-83.0482
11
53.0125
21
-82.9421
0
LINE
8
BLACK
6
CONTINUOUS
10
53.0125
20
-82.9421
11
53.0031
21
-82.9308
0
LINE
8
BLACK
6
CONTINUOUS
10
53.0031
20
-82.9308
11
52.9962
21
-82.9178
0
LINE
8
BLACK
6
CONTINUOUS
10
52.9962
20
-82.9178
11
52.9919
21
-82.9037
0
LINE
8
BLACK
6
CONTINUOUS
10
52.9919
20
-82.9037
11
52.9905
21
-82.8891
0
LINE
8
BLACK
6
CONTINUOUS
10
52.9905
20
-82.8891
11
52.9919
21
-82.8745
0
LINE
8
BLACK
6
CONTINUOUS
10
52.9919
20
-82.8745
11
52.9962
21
-82.8604
0
LINE
8
BLACK
6
CONTINUOUS
10
52.9962
20
-82.8604
11
53.0031
21
-82.8474
0
LINE
8
BLACK
6
CONTINUOUS
10
53.0031
20
-82.8474
11
53.0125
21
-82.8361
0
LINE
8
BLACK
6
CONTINUOUS
10
53.0125
20
-82.8361
11
53.9494
21
-81.8991
0
LINE
8
BLACK
6
CONTINUOUS
10
53.9494
20
-81.8991
11
53.9608
21
-81.8898
0
LINE
8
BLACK
6
CONTINUOUS
10
53.9608
20
-81.8898
11
53.9737
21
-81.8829
0
LINE
8
BLACK
6
CONTINUOUS
10
53.9737
20
-81.8829
11
53.9878
21
-81.8786
0
LINE
8
BLACK
6
CONTINUOUS
10
53.9878
20
-81.8786
11
54.0024
21
-81.8772
0
LINE
8
BLACK
6
CONTINUOUS
10
54.0024
20
-81.8772
11
54.0171
21
-81.8786
0
LINE
8
BLACK
6
CONTINUOUS
10
58.0122
20
-81.8786
11
58.0263
21
-81.8829
0
LINE
8
BLACK
6
CONTINUOUS
10
58.0263
20
-81.8829
11
58.0392
21
-81.8898
0
LINE
8
BLACK
6
CONTINUOUS
10
58.0392
20
-81.8898
11
58.0506
21
-81.8991
0
LINE
8
BLACK
6
CONTINUOUS
10
58.0506
20
-81.8991
11
58.9875
21
-82.8361
0
LINE
8
BLACK
6
CONTINUOUS
10
58.9875
20
-82.8361
11
58.9969
21
-82.8474
0
LINE
8
BLACK
6
CONTINUOUS
10
58.9969
20
-82.8474
11
59.0038
21
-82.8604
0
LINE
8
BLACK
6
CONTINUOUS
10
59.0038
20
-82.8604
11
59.0081
21
-82.8745
0
LINE
8
BLACK
6
CONTINUOUS
10
59.0081
20
-82.8745
11
59.0095
21
-82.8891
0
LINE
8
BLACK
6
CONTINUOUS
10
59.0095
20
-82.8891
11
59.0081
21
-82.9037
0
LINE
8
BLACK
6
CONTINUOUS
10
59.0081
20
-82.9037
11
59.0038
21
-82.9178
0
LINE
8
BLACK
6
CONTINUOUS
10
59.0038
20
-82.9178
11
58.9969
21
-82.9308
0
LINE
8
BLACK
6
CONTINUOUS
10
58.9969
20
-82.9308
11
58.9875
21
-82.9421
0
LINE
8
BLACK
6
CONTINUOUS
10
58.9875
20
-82.9421
11
58.8815
21
-83.0482
0
LINE
8
BLACK
6
CONTINUOUS
10
58.8815
20
-83.0482
11
58.8701
21
-83.0575
0
LINE
8
BLACK
6
CONTINUOUS
10
58.8701
20
-83.0575
11
58.8571
21
-83.0644
0
LINE
8
BLACK
6
CONTINUOUS
10
58.8571
20
-83.0644
11
58.8431
21
-83.0687
0
LINE
8
BLACK
6
CONTINUOUS
10
58.8431
20
-83.0687
11
58.8284
21
-83.0702
0
LINE
8
BLACK
6
CONTINUOUS
10
58.8284
20
-83.0702
11
58.8138
21
-83.0687
0
LINE
8
BLACK
6
CONTINUOUS
10
58.8138
20
-83.0687
11
58.7997
21
-83.0644
0
LINE
8
BLACK
6
CONTINUOUS
10
58.7997
20
-83.0644
11
58.7868
21
-83.0575
0
LINE
8
BLACK
6
CONTINUOUS
10
58.7868
20
-83.0575
11
58.7754
21
-83.0482
0
LINE
8
BLACK
6
CONTINUOUS
10
58.7754
20
-83.0482
11
57.8385
21
-82.1113
0
LINE
8
BLACK
6
CONTINUOUS
10
57.8385
20
-82.1113
11
57.8292
21
-82.0999
0
LINE
8
BLACK
6
CONTINUOUS
10
57.8292
20
-82.0999
11
57.8222
21
-82.0869
0
LINE
8
BLACK
6
CONTINUOUS
10
57.8222
20
-82.0869
11
57.818
21
-82.0729
0
LINE
8
BLACK
6
CONTINUOUS
10
57.818
20
-82.0729
11
57.8165
21
-82.0582
0
LINE
8
BLACK
6
CONTINUOUS
10
57.8165
20
-82.0582
11
57.818
21
-82.0436
0
LINE
8
BLACK
6
CONTINUOUS
10
57.818
20
-82.0436
11
57.8222
21
-82.0295
0
LINE
8
BLACK
6
CONTINUOUS
10
57.8222
20
-82.0295
11
57.8292
21
-82.0166
0
LINE
8
BLACK
6
CONTINUOUS
10
57.8292
20
-82.0166
11
57.8385
21
-82.0052
0
LINE
8
BLACK
6
CONTINUOUS
10
57.8385
20
-82.0052
11
57.9445
21
-81.8991
0
LINE
8
BLACK
6
CONTINUOUS
10
57.9445
20
-81.8991
11
57.9559
21
-81.8898
0
LINE
8
BLACK
6
CONTINUOUS
10
57.9559
20
-81.8898
11
57.9689
21
-81.8829
0
LINE
8
BLACK
6
CONTINUOUS
10
57.9689
20
-81.8829
11
57.9829
21
-81.8786
0
LINE
8
BLACK
6
CONTINUOUS
10
57.9829
20
-81.8786
11
57.9976
21
-81.8772
0
LINE
8
BLACK
6
CONTINUOUS
10
57.9976
20
-81.8772
11
58.0122
21
-81.8786
0
LINE
8
BLACK
6
CONTINUOUS
10
73.0122
20
-81.8786
11
73.0263
21
-81.8829
0
LINE
8
BLACK
6
CONTINUOUS
10
73.0263
20
-81.8829
11
73.0393
21
-81.8898
0
LINE
8
BLACK
6
CONTINUOUS
10
73.0393
20
-81.8898
11
73.0506
21
-81.8991
0
LINE
8
BLACK
6
CONTINUOUS
10
73.0506
20
-81.8991
11
73.9875
21
-82.8361
0
LINE
8
BLACK
6
CONTINUOUS
10
73.9875
20
-82.8361
11
73.9969
21
-82.8474
0
LINE
8
BLACK
6
CONTINUOUS
10
73.9969
20
-82.8474
11
74.0038
21
-82.8604
0
LINE
8
BLACK
6
CONTINUOUS
10
74.0038
20
-82.8604
11
74.0081
21
-82.8745
0
LINE
8
BLACK
6
CONTINUOUS
10
74.0081
20
-82.8745
11
74.0095
21
-82.8891
0
LINE
8
BLACK
6
CONTINUOUS
10
74.0095
20
-82.8891
11
74.0081
21
-82.9037
0
LINE
8
BLACK
6
CONTINUOUS
10
74.0081
20
-82.9037
11
74.0038
21
-82.9178
0
LINE
8
BLACK
6
CONTINUOUS
10
74.0038
20
-82.9178
11
73.9969
21
-82.9308
0
LINE
8
BLACK
6
CONTINUOUS
10
73.9969
20
-82.9308
11
73.9875
21
-82.9421
0
LINE
8
BLACK
6
CONTINUOUS
10
73.9875
20
-82.9421
11
73.8815
21
-83.0482
0
LINE
8
BLACK
6
CONTINUOUS
10
73.8815
20
-83.0482
11
73.8701
21
-83.0575
0
LINE
8
BLACK
6
CONTINUOUS
10
73.8701
20
-83.0575
11
73.8571
21
-83.0644
0
LINE
8
BLACK
6
CONTINUOUS
10
73.8571
20
-83.0644
11
73.8431
21
-83.0687
0
LINE
8
BLACK
6
CONTINUOUS
10
73.8431
20
-83.0687
11
73.8284
21
-83.0702
0
LINE
8
BLACK
6
CONTINUOUS
10
73.8284
20
-83.0702
11
73.8138
21
-83.0687
0
LINE
8
BLACK
6
CONTINUOUS
10
73.8138
20
-83.0687
11
73.7997
21
-83.0644
0
LINE
8
BLACK
6
CONTINUOUS
10
73.7997
20
-83.0644
11
73.7868
21
-83.0575
0
LINE
8
BLACK
6
CONTINUOUS
10
73.7868
20
-83.0575
11
73.7754
21
-83.0482
0
LINE
8
BLACK
6
CONTINUOUS
10
73.7754
20
-83.0482
11
72.8385
21
-82.1113
0
LINE
8
BLACK
6
CONTINUOUS
10
72.8385
20
-82.1113
11
72.8292
21
-82.0999
0
LINE
8
BLACK
6
CONTINUOUS
10
72.8292
20
-82.0999
11
72.8222
21
-82.0869
0
LINE
8
BLACK
6
CONTINUOUS
10
72.8222
20
-82.0869
11
72.818
21
-82.0729
0
LINE
8
BLACK
6
CONTINUOUS
10
72.818
20
-82.0729
11
72.8165
21
-82.0582
0
LINE
8
BLACK
6
CONTINUOUS
10
72.8165
20
-82.0582
11
72.818
21
-82.0436
0
LINE
8
BLACK
6
CONTINUOUS
10
72.818
20
-82.0436
11
72.8222
21
-82.0295
0
LINE
8
BLACK
6
CONTINUOUS
10
72.8222
20
-82.0295
11
72.8292
21
-82.0166
0
LINE
8
BLACK
6
CONTINUOUS
10
72.8292
20
-82.0166
11
72.8385
21
-82.0052
0
LINE
8
BLACK
6
CONTINUOUS
10
72.8385
20
-82.0052
11
72.9446
21
-81.8991
0
LINE
8
BLACK
6
CONTINUOUS
10
72.9446
20
-81.8991
11
72.9559
21
-81.8898
0
LINE
8
BLACK
6
CONTINUOUS
10
72.9559
20
-81.8898
11
72.9689
21
-81.8829
0
LINE
8
BLACK
6
CONTINUOUS
10
72.9689
20
-81.8829
11
72.983
21
-81.8786
0
LINE
8
BLACK
6
CONTINUOUS
10
72.983
20
-81.8786
11
72.9976
21
-81.8772
0
LINE
8
BLACK
6
CONTINUOUS
10
72.9976
20
-81.8772
11
73.0122
21
-81.8786
0
LINE
8
BLACK
6
CONTINUOUS
10
53.6635
20
-81.5251
11
53.6776
21
-81.5293
0
LINE
8
BLACK
6
CONTINUOUS
10
53.6776
20
-81.5293
11
53.6905
21
-81.5363
0
LINE
8
BLACK
6
CONTINUOUS
10
53.6905
20
-81.5363
11
53.7019
21
-81.5456
0
LINE
8
BLACK
6
CONTINUOUS
10
53.7019
20
-81.5456
11
53.808
21
-81.6517
0
LINE
8
BLACK
6
CONTINUOUS
10
53.808
20
-81.6517
11
53.8173
21
-81.663
0
LINE
8
BLACK
6
CONTINUOUS
10
53.8173
20
-81.663
11
53.8242
21
-81.676
0
LINE
8
BLACK
6
CONTINUOUS
10
53.8242
20
-81.676
11
53.8285
21
-81.6901
0
LINE
8
BLACK
6
CONTINUOUS
10
53.8285
20
-81.6901
11
53.8299
21
-81.7047
0
LINE
8
BLACK
6
CONTINUOUS
10
53.8299
20
-81.7047
11
53.8285
21
-81.7193
0
LINE
8
BLACK
6
CONTINUOUS
10
53.8285
20
-81.7193
11
53.8242
21
-81.7334
0
LINE
8
BLACK
6
CONTINUOUS
10
53.8242
20
-81.7334
11
53.8173
21
-81.7464
0
LINE
8
BLACK
6
CONTINUOUS
10
53.8173
20
-81.7464
11
53.808
21
-81.7577
0
LINE
8
BLACK
6
CONTINUOUS
10
53.808
20
-81.7577
11
52.8711
21
-82.6946
0
LINE
8
BLACK
6
CONTINUOUS
10
52.8711
20
-82.6946
11
52.8597
21
-82.704
0
LINE
8
BLACK
6
CONTINUOUS
10
52.8597
20
-82.704
11
52.8467
21
-82.7109
0
LINE
8
BLACK
6
CONTINUOUS
10
52.8467
20
-82.7109
11
52.8327
21
-82.7152
0
LINE
8
BLACK
6
CONTINUOUS
10
52.8327
20
-82.7152
11
52.818
21
-82.7166
0
LINE
8
BLACK
6
CONTINUOUS
10
52.818
20
-82.7166
11
52.8034
21
-82.7152
0
LINE
8
BLACK
6
CONTINUOUS
10
52.8034
20
-82.7152
11
52.7893
21
-82.7109
0
LINE
8
BLACK
6
CONTINUOUS
10
52.7893
20
-82.7109
11
52.7764
21
-82.704
0
LINE
8
BLACK
6
CONTINUOUS
10
52.7764
20
-82.704
11
52.765
21
-82.6946
0
LINE
8
BLACK
6
CONTINUOUS
10
52.765
20
-82.6946
11
52.6589
21
-82.5886
0
LINE
8
BLACK
6
CONTINUOUS
10
52.6589
20
-82.5886
11
52.6496
21
-82.5772
0
LINE
8
BLACK
6
CONTINUOUS
10
52.6496
20
-82.5772
11
52.6427
21
-82.5642
0
LINE
8
BLACK
6
CONTINUOUS
10
52.6427
20
-82.5642
11
52.6384
21
-82.5502
0
LINE
8
BLACK
6
CONTINUOUS
10
52.6384
20
-82.5502
11
52.637
21
-82.5355
0
LINE
8
BLACK
6
CONTINUOUS
10
52.637
20
-82.5355
11
52.6384
21
-82.5209
0
LINE
8
BLACK
6
CONTINUOUS
10
52.6384
20
-82.5209
11
52.6427
21
-82.5068
0
LINE
8
BLACK
6
CONTINUOUS
10
52.6427
20
-82.5068
11
52.6496
21
-82.4939
0
LINE
8
BLACK
6
CONTINUOUS
10
52.6496
20
-82.4939
11
52.6589
21
-82.4825
0
LINE
8
BLACK
6
CONTINUOUS
10
52.6589
20
-82.4825
11
53.5958
21
-81.5456
0
LINE
8
BLACK
6
CONTINUOUS
10
53.5958
20
-81.5456
11
53.6072
21
-81.5363
0
LINE
8
BLACK
6
CONTINUOUS
10
53.6072
20
-81.5363
11
53.6202
21
-81.5293
0
LINE
8
BLACK
6
CONTINUOUS
10
53.6202
20
-81.5293
11
53.6342
21
-81.5251
0
LINE
8
BLACK
6
CONTINUOUS
10
53.6342
20
-81.5251
11
53.6489
21
-81.5236
0
LINE
8
BLACK
6
CONTINUOUS
10
53.6489
20
-81.5236
11
53.6635
21
-81.5251
0
LINE
8
BLACK
6
CONTINUOUS
10
73.3658
20
-81.5251
11
73.3798
21
-81.5293
0
LINE
8
BLACK
6
CONTINUOUS
10
73.3798
20
-81.5293
11
73.3928
21
-81.5363
0
LINE
8
BLACK
6
CONTINUOUS
10
73.3928
20
-81.5363
11
73.4042
21
-81.5456
0
LINE
8
BLACK
6
CONTINUOUS
10
73.4042
20
-81.5456
11
74.3411
21
-82.4825
0
LINE
8
BLACK
6
CONTINUOUS
10
74.3411
20
-82.4825
11
74.3504
21
-82.4939
0
LINE
8
BLACK
6
CONTINUOUS
10
74.3504
20
-82.4939
11
74.3574
21
-82.5068
0
LINE
8
BLACK
6
CONTINUOUS
10
74.3574
20
-82.5068
11
74.3616
21
-82.5209
0
LINE
8
BLACK
6
CONTINUOUS
10
74.3616
20
-82.5209
11
74.3631
21
-82.5355
0
LINE
8
BLACK
6
CONTINUOUS
10
74.3631
20
-82.5355
11
74.3616
21
-82.5502
0
LINE
8
BLACK
6
CONTINUOUS
10
74.3616
20
-82.5502
11
74.3574
21
-82.5642
0
LINE
8
BLACK
6
CONTINUOUS
10
74.3574
20
-82.5642
11
74.3504
21
-82.5772
0
LINE
8
BLACK
6
CONTINUOUS
10
74.3504
20
-82.5772
11
74.3411
21
-82.5886
0
LINE
8
BLACK
6
CONTINUOUS
10
74.3411
20
-82.5886
11
74.235
21
-82.6946
0
LINE
8
BLACK
6
CONTINUOUS
10
74.235
20
-82.6946
11
74.2237
21
-82.704
0
LINE
8
BLACK
6
CONTINUOUS
10
74.2237
20
-82.704
11
74.2107
21
-82.7109
0
LINE
8
BLACK
6
CONTINUOUS
10
74.2107
20
-82.7109
11
74.1966
21
-82.7152
0
LINE
8
BLACK
6
CONTINUOUS
10
74.1966
20
-82.7152
11
74.182
21
-82.7166
0
LINE
8
BLACK
6
CONTINUOUS
10
74.182
20
-82.7166
11
74.1674
21
-82.7152
0
LINE
8
BLACK
6
CONTINUOUS
10
74.1674
20
-82.7152
11
74.1533
21
-82.7109
0
LINE
8
BLACK
6
CONTINUOUS
10
74.1533
20
-82.7109
11
74.1403
21
-82.704
0
LINE
8
BLACK
6
CONTINUOUS
10
74.1403
20
-82.704
11
74.129
21
-82.6946
0
LINE
8
BLACK
6
CONTINUOUS
10
74.129
20
-82.6946
11
73.192
21
-81.7577
0
LINE
8
BLACK
6
CONTINUOUS
10
73.192
20
-81.7577
11
73.1827
21
-81.7464
0
LINE
8
BLACK
6
CONTINUOUS
10
73.1827
20
-81.7464
11
73.1758
21
-81.7334
0
LINE
8
BLACK
6
CONTINUOUS
10
73.1758
20
-81.7334
11
73.1715
21
-81.7193
0
LINE
8
BLACK
6
CONTINUOUS
10
73.1715
20
-81.7193
11
73.1701
21
-81.7047
0
LINE
8
BLACK
6
CONTINUOUS
10
73.1701
20
-81.7047
11
73.1715
21
-81.6901
0
LINE
8
BLACK
6
CONTINUOUS
10
73.1715
20
-81.6901
11
73.1758
21
-81.676
0
LINE
8
BLACK
6
CONTINUOUS
10
73.1758
20
-81.676
11
73.1827
21
-81.663
0
LINE
8
BLACK
6
CONTINUOUS
10
73.1827
20
-81.663
11
73.192
21
-81.6517
0
LINE
8
BLACK
6
CONTINUOUS
10
73.192
20
-81.6517
11
73.2981
21
-81.5456
0
LINE
8
BLACK
6
CONTINUOUS
10
73.2981
20
-81.5456
11
73.3095
21
-81.5363
0
LINE
8
BLACK
6
CONTINUOUS
10
73.3095
20
-81.5363
11
73.3224
21
-81.5293
0
LINE
8
BLACK
6
CONTINUOUS
10
73.3224
20
-81.5293
11
73.3365
21
-81.5251
0
LINE
8
BLACK
6
CONTINUOUS
10
73.3365
20
-81.5251
11
73.3511
21
-81.5236
0
LINE
8
BLACK
6
CONTINUOUS
10
73.3511
20
-81.5236
11
73.3658
21
-81.5251
0
LINE
8
BLACK
6
CONTINUOUS
10
58.3658
20
-81.5251
11
58.3798
21
-81.5293
0
LINE
8
BLACK
6
CONTINUOUS
10
58.3798
20
-81.5293
11
58.3928
21
-81.5363
0
LINE
8
BLACK
6
CONTINUOUS
10
58.3928
20
-81.5363
11
58.4042
21
-81.5456
0
LINE
8
BLACK
6
CONTINUOUS
10
58.4042
20
-81.5456
11
59.3411
21
-82.4825
0
LINE
8
BLACK
6
CONTINUOUS
10
59.3411
20
-82.4825
11
59.3504
21
-82.4939
0
LINE
8
BLACK
6
CONTINUOUS
10
59.3504
20
-82.4939
11
59.3573
21
-82.5068
0
LINE
8
BLACK
6
CONTINUOUS
10
59.3573
20
-82.5068
11
59.3616
21
-82.5209
0
LINE
8
BLACK
6
CONTINUOUS
10
59.3616
20
-82.5209
11
59.363
21
-82.5355
0
LINE
8
BLACK
6
CONTINUOUS
10
59.363
20
-82.5355
11
59.3616
21
-82.5502
0
LINE
8
BLACK
6
CONTINUOUS
10
59.3616
20
-82.5502
11
59.3573
21
-82.5642
0
LINE
8
BLACK
6
CONTINUOUS
10
59.3573
20
-82.5642
11
59.3504
21
-82.5772
0
LINE
8
BLACK
6
CONTINUOUS
10
59.3504
20
-82.5772
11
59.3411
21
-82.5886
0
LINE
8
BLACK
6
CONTINUOUS
10
59.3411
20
-82.5886
11
59.235
21
-82.6946
0
LINE
8
BLACK
6
CONTINUOUS
10
59.235
20
-82.6946
11
59.2236
21
-82.704
0
LINE
8
BLACK
6
CONTINUOUS
10
59.2236
20
-82.704
11
59.2107
21
-82.7109
0
LINE
8
BLACK
6
CONTINUOUS
10
59.2107
20
-82.7109
11
59.1966
21
-82.7152
0
LINE
8
BLACK
6
CONTINUOUS
10
59.1966
20
-82.7152
11
59.182
21
-82.7166
0
LINE
8
BLACK
6
CONTINUOUS
10
59.182
20
-82.7166
11
59.1673
21
-82.7152
0
LINE
8
BLACK
6
CONTINUOUS
10
59.1673
20
-82.7152
11
59.1533
21
-82.7109
0
LINE
8
BLACK
6
CONTINUOUS
10
59.1533
20
-82.7109
11
59.1403
21
-82.704
0
LINE
8
BLACK
6
CONTINUOUS
10
59.1403
20
-82.704
11
59.1289
21
-82.6946
0
LINE
8
BLACK
6
CONTINUOUS
10
59.1289
20
-82.6946
11
58.192
21
-81.7577
0
LINE
8
BLACK
6
CONTINUOUS
10
58.192
20
-81.7577
11
58.1827
21
-81.7464
0
LINE
8
BLACK
6
CONTINUOUS
10
58.1827
20
-81.7464
11
58.1758
21
-81.7334
0
LINE
8
BLACK
6
CONTINUOUS
10
58.1758
20
-81.7334
11
58.1715
21
-81.7193
0
LINE
8
BLACK
6
CONTINUOUS
10
58.1715
20
-81.7193
11
58.1701
21
-81.7047
0
LINE
8
BLACK
6
CONTINUOUS
10
58.1701
20
-81.7047
11
58.1715
21
-81.6901
0
LINE
8
BLACK
6
CONTINUOUS
10
58.1715
20
-81.6901
11
58.1758
21
-81.676
0
LINE
8
BLACK
6
CONTINUOUS
10
58.1758
20
-81.676
11
58.1827
21
-81.663
0
LINE
8
BLACK
6
CONTINUOUS
10
58.1827
20
-81.663
11
58.192
21
-81.6517
0
LINE
8
BLACK
6
CONTINUOUS
10
58.192
20
-81.6517
11
58.2981
21
-81.5456
0
LINE
8
BLACK
6
CONTINUOUS
10
58.2981
20
-81.5456
11
58.3095
21
-81.5363
0
LINE
8
BLACK
6
CONTINUOUS
10
58.3095
20
-81.5363
11
58.3224
21
-81.5293
0
LINE
8
BLACK
6
CONTINUOUS
10
58.3224
20
-81.5293
11
58.3365
21
-81.5251
0
LINE
8
BLACK
6
CONTINUOUS
10
58.3365
20
-81.5251
11
58.3511
21
-81.5236
0
LINE
8
BLACK
6
CONTINUOUS
10
58.3511
20
-81.5236
11
58.3658
21
-81.5251
0
LINE
8
BLACK
6
CONTINUOUS
10
68.6635
20
-81.5251
11
68.6776
21
-81.5293
0
LINE
8
BLACK
6
CONTINUOUS
10
68.6776
20
-81.5293
11
68.6906
21
-81.5363
0
LINE
8
BLACK
6
CONTINUOUS
10
68.6906
20
-81.5363
11
68.7019
21
-81.5456
0
LINE
8
BLACK
6
CONTINUOUS
10
68.7019
20
-81.5456
11
68.808
21
-81.6517
0
LINE
8
BLACK
6
CONTINUOUS
10
68.808
20
-81.6517
11
68.8173
21
-81.663
0
LINE
8
BLACK
6
CONTINUOUS
10
68.8173
20
-81.663
11
68.8242
21
-81.676
0
LINE
8
BLACK
6
CONTINUOUS
10
68.8242
20
-81.676
11
68.8285
21
-81.6901
0
LINE
8
BLACK
6
CONTINUOUS
10
68.8285
20
-81.6901
11
68.83
21
-81.7047
0
LINE
8
BLACK
6
CONTINUOUS
10
68.83
20
-81.7047
11
68.8285
21
-81.7193
0
LINE
8
BLACK
6
CONTINUOUS
10
68.8285
20
-81.7193
11
68.8242
21
-81.7334
0
LINE
8
BLACK
6
CONTINUOUS
10
68.8242
20
-81.7334
11
68.8173
21
-81.7464
0
LINE
8
BLACK
6
CONTINUOUS
10
68.8173
20
-81.7464
11
68.808
21
-81.7577
0
LINE
8
BLACK
6
CONTINUOUS
10
68.808
20
-81.7577
11
67.8711
21
-82.6946
0
LINE
8
BLACK
6
CONTINUOUS
10
67.8711
20
-82.6946
11
67.8597
21
-82.704
0
LINE
8
BLACK
6
CONTINUOUS
10
67.8597
20
-82.704
11
67.8467
21
-82.7109
0
LINE
8
BLACK
6
CONTINUOUS
10
67.8467
20
-82.7109
11
67.8327
21
-82.7152
0
LINE
8
BLACK
6
CONTINUOUS
10
67.8327
20
-82.7152
11
67.818
21
-82.7166
0
LINE
8
BLACK
6
CONTINUOUS
10
67.818
20
-82.7166
11
67.8034
21
-82.7152
0
LINE
8
BLACK
6
CONTINUOUS
10
67.8034
20
-82.7152
11
67.7893
21
-82.7109
0
LINE
8
BLACK
6
CONTINUOUS
10
67.7893
20
-82.7109
11
67.7764
21
-82.704
0
LINE
8
BLACK
6
CONTINUOUS
10
67.7764
20
-82.704
11
67.765
21
-82.6946
0
LINE
8
BLACK
6
CONTINUOUS
10
67.765
20
-82.6946
11
67.6589
21
-82.5886
0
LINE
8
BLACK
6
CONTINUOUS
10
67.6589
20
-82.5886
11
67.6496
21
-82.5772
0
LINE
8
BLACK
6
CONTINUOUS
10
67.6496
20
-82.5772
11
67.6427
21
-82.5642
0
LINE
8
BLACK
6
CONTINUOUS
10
67.6427
20
-82.5642
11
67.6384
21
-82.5502
0
LINE
8
BLACK
6
CONTINUOUS
10
67.6384
20
-82.5502
11
67.637
21
-82.5355
0
LINE
8
BLACK
6
CONTINUOUS
10
67.637
20
-82.5355
11
67.6384
21
-82.5209
0
LINE
8
BLACK
6
CONTINUOUS
10
67.6384
20
-82.5209
11
67.6427
21
-82.5068
0
LINE
8
BLACK
6
CONTINUOUS
10
67.6427
20
-82.5068
11
67.6496
21
-82.4939
0
LINE
8
BLACK
6
CONTINUOUS
10
67.6496
20
-82.4939
11
67.6589
21
-82.4825
0
LINE
8
BLACK
6
CONTINUOUS
10
67.6589
20
-82.4825
11
68.5959
21
-81.5456
0
LINE
8
BLACK
6
CONTINUOUS
10
68.5959
20
-81.5456
11
68.6072
21
-81.5363
0
LINE
8
BLACK
6
CONTINUOUS
10
68.6072
20
-81.5363
11
68.6202
21
-81.5293
0
LINE
8
BLACK
6
CONTINUOUS
10
68.6202
20
-81.5293
11
68.6343
21
-81.5251
0
LINE
8
BLACK
6
CONTINUOUS
10
68.6343
20
-81.5251
11
68.6489
21
-81.5236
0
LINE
8
BLACK
6
CONTINUOUS
10
68.6489
20
-81.5236
11
68.6635
21
-81.5251
0
LINE
8
BLACK
6
CONTINUOUS
10
53.3099
20
-81.1715
11
53.324
21
-81.1758
0
LINE
8
BLACK
6
CONTINUOUS
10
53.324
20
-81.1758
11
53.337
21
-81.1827
0
LINE
8
BLACK
6
CONTINUOUS
10
53.337
20
-81.1827
11
53.3483
21
-81.192
0
LINE
8
BLACK
6
CONTINUOUS
10
53.3483
20
-81.192
11
53.4544
21
-81.2981
0
LINE
8
BLACK
6
CONTINUOUS
10
53.4544
20
-81.2981
11
53.4637
21
-81.3095
0
LINE
8
BLACK
6
CONTINUOUS
10
53.4637
20
-81.3095
11
53.4707
21
-81.3224
0
LINE
8
BLACK
6
CONTINUOUS
10
53.4707
20
-81.3224
11
53.4749
21
-81.3365
0
LINE
8
BLACK
6
CONTINUOUS
10
53.4749
20
-81.3365
11
53.4764
21
-81.3511
0
LINE
8
BLACK
6
CONTINUOUS
10
53.4764
20
-81.3511
11
53.4749
21
-81.3658
0
LINE
8
BLACK
6
CONTINUOUS
10
53.4749
20
-81.3658
11
53.4707
21
-81.3798
0
LINE
8
BLACK
6
CONTINUOUS
10
53.4707
20
-81.3798
11
53.4637
21
-81.3928
0
LINE
8
BLACK
6
CONTINUOUS
10
53.4637
20
-81.3928
11
53.4544
21
-81.4042
0
LINE
8
BLACK
6
CONTINUOUS
10
53.4544
20
-81.4042
11
52.5175
21
-82.3411
0
LINE
8
BLACK
6
CONTINUOUS
10
52.5175
20
-82.3411
11
52.5061
21
-82.3504
0
LINE
8
BLACK
6
CONTINUOUS
10
52.5061
20
-82.3504
11
52.4932
21
-82.3573
0
LINE
8
BLACK
6
CONTINUOUS
10
52.4932
20
-82.3573
11
52.4791
21
-82.3616
0
LINE
8
BLACK
6
CONTINUOUS
10
52.4791
20
-82.3616
11
52.4645
21
-82.363
0
LINE
8
BLACK
6
CONTINUOUS
10
52.4645
20
-82.363
11
52.4498
21
-82.3616
0
LINE
8
BLACK
6
CONTINUOUS
10
52.4498
20
-82.3616
11
52.4358
21
-82.3573
0
LINE
8
BLACK
6
CONTINUOUS
10
52.4358
20
-82.3573
11
52.4228
21
-82.3504
0
LINE
8
BLACK
6
CONTINUOUS
10
52.4228
20
-82.3504
11
52.4114
21
-82.3411
0
LINE
8
BLACK
6
CONTINUOUS
10
52.4114
20
-82.3411
11
52.3054
21
-82.235
0
LINE
8
BLACK
6
CONTINUOUS
10
52.3054
20
-82.235
11
52.296
21
-82.2236
0
LINE
8
BLACK
6
CONTINUOUS
10
52.296
20
-82.2236
11
52.2891
21
-82.2107
0
LINE
8
BLACK
6
CONTINUOUS
10
52.2891
20
-82.2107
11
52.2848
21
-82.1966
0
LINE
8
BLACK
6
CONTINUOUS
10
52.2848
20
-82.1966
11
52.2834
21
-82.182
0
LINE
8
BLACK
6
CONTINUOUS
10
52.2834
20
-82.182
11
52.2848
21
-82.1673
0
LINE
8
BLACK
6
CONTINUOUS
10
52.2848
20
-82.1673
11
52.2891
21
-82.1533
0
LINE
8
BLACK
6
CONTINUOUS
10
52.2891
20
-82.1533
11
52.296
21
-82.1403
0
LINE
8
BLACK
6
CONTINUOUS
10
52.296
20
-82.1403
11
52.3054
21
-82.1289
0
LINE
8
BLACK
6
CONTINUOUS
10
52.3054
20
-82.1289
11
53.2423
21
-81.192
0
LINE
8
BLACK
6
CONTINUOUS
10
53.2423
20
-81.192
11
53.2536
21
-81.1827
0
LINE
8
BLACK
6
CONTINUOUS
10
53.2536
20
-81.1827
11
53.2666
21
-81.1758
0
LINE
8
BLACK
6
CONTINUOUS
10
53.2666
20
-81.1758
11
53.2807
21
-81.1715
0
LINE
8
BLACK
6
CONTINUOUS
10
53.2807
20
-81.1715
11
53.2953
21
-81.1701
0
LINE
8
BLACK
6
CONTINUOUS
10
53.2953
20
-81.1701
11
53.3099
21
-81.1715
0
LINE
8
BLACK
6
CONTINUOUS
10
73.7193
20
-81.1715
11
73.7334
21
-81.1758
0
LINE
8
BLACK
6
CONTINUOUS
10
73.7334
20
-81.1758
11
73.7464
21
-81.1827
0
LINE
8
BLACK
6
CONTINUOUS
10
73.7464
20
-81.1827
11
73.7577
21
-81.192
0
LINE
8
BLACK
6
CONTINUOUS
10
73.7577
20
-81.192
11
74.6947
21
-82.1289
0
LINE
8
BLACK
6
CONTINUOUS
10
74.6947
20
-82.1289
11
74.704
21
-82.1403
0
LINE
8
BLACK
6
CONTINUOUS
10
74.704
20
-82.1403
11
74.7109
21
-82.1533
0
LINE
8
BLACK
6
CONTINUOUS
10
74.7109
20
-82.1533
11
74.7152
21
-82.1673
0
LINE
8
BLACK
6
CONTINUOUS
10
74.7152
20
-82.1673
11
74.7166
21
-82.182
0
LINE
8
BLACK
6
CONTINUOUS
10
74.7166
20
-82.182
11
74.7152
21
-82.1966
0
LINE
8
BLACK
6
CONTINUOUS
10
74.7152
20
-82.1966
11
74.7109
21
-82.2107
0
LINE
8
BLACK
6
CONTINUOUS
10
74.7109
20
-82.2107
11
74.704
21
-82.2236
0
LINE
8
BLACK
6
CONTINUOUS
10
74.704
20
-82.2236
11
74.6947
21
-82.235
0
LINE
8
BLACK
6
CONTINUOUS
10
74.6947
20
-82.235
11
74.5886
21
-82.3411
0
LINE
8
BLACK
6
CONTINUOUS
10
74.5886
20
-82.3411
11
74.5772
21
-82.3504
0
LINE
8
BLACK
6
CONTINUOUS
10
74.5772
20
-82.3504
11
74.5643
21
-82.3573
0
LINE
8
BLACK
6
CONTINUOUS
10
74.5643
20
-82.3573
11
74.5502
21
-82.3616
0
LINE
8
BLACK
6
CONTINUOUS
10
74.5502
20
-82.3616
11
74.5356
21
-82.363
0
LINE
8
BLACK
6
CONTINUOUS
10
74.5356
20
-82.363
11
74.5209
21
-82.3616
0
LINE
8
BLACK
6
CONTINUOUS
10
74.5209
20
-82.3616
11
74.5069
21
-82.3573
0
LINE
8
BLACK
6
CONTINUOUS
10
74.5069
20
-82.3573
11
74.4939
21
-82.3504
0
LINE
8
BLACK
6
CONTINUOUS
10
74.4939
20
-82.3504
11
74.4825
21
-82.3411
0
LINE
8
BLACK
6
CONTINUOUS
10
74.4825
20
-82.3411
11
73.5456
21
-81.4042
0
LINE
8
BLACK
6
CONTINUOUS
10
73.5456
20
-81.4042
11
73.5363
21
-81.3928
0
LINE
8
BLACK
6
CONTINUOUS
10
73.5363
20
-81.3928
11
73.5293
21
-81.3798
0
LINE
8
BLACK
6
CONTINUOUS
10
73.5293
20
-81.3798
11
73.5251
21
-81.3658
0
LINE
8
BLACK
6
CONTINUOUS
10
73.5251
20
-81.3658
11
73.5236
21
-81.3511
0
LINE
8
BLACK
6
CONTINUOUS
10
73.5236
20
-81.3511
11
73.5251
21
-81.3365
0
LINE
8
BLACK
6
CONTINUOUS
10
73.5251
20
-81.3365
11
73.5293
21
-81.3224
0
LINE
8
BLACK
6
CONTINUOUS
10
73.5293
20
-81.3224
11
73.5363
21
-81.3095
0
LINE
8
BLACK
6
CONTINUOUS
10
73.5363
20
-81.3095
11
73.5456
21
-81.2981
0
LINE
8
BLACK
6
CONTINUOUS
10
73.5456
20
-81.2981
11
73.6517
21
-81.192
0
LINE
8
BLACK
6
CONTINUOUS
10
73.6517
20
-81.192
11
73.663
21
-81.1827
0
LINE
8
BLACK
6
CONTINUOUS
10
73.663
20
-81.1827
11
73.676
21
-81.1758
0
LINE
8
BLACK
6
CONTINUOUS
10
73.676
20
-81.1758
11
73.6901
21
-81.1715
0
LINE
8
BLACK
6
CONTINUOUS
10
73.6901
20
-81.1715
11
73.7047
21
-81.1701
0
LINE
8
BLACK
6
CONTINUOUS
10
73.7047
20
-81.1701
11
73.7193
21
-81.1715
0
LINE
8
BLACK
6
CONTINUOUS
10
68.31
20
-81.1715
11
68.324
21
-81.1758
0
LINE
8
BLACK
6
CONTINUOUS
10
68.324
20
-81.1758
11
68.337
21
-81.1827
0
LINE
8
BLACK
6
CONTINUOUS
10
68.337
20
-81.1827
11
68.3484
21
-81.192
0
LINE
8
BLACK
6
CONTINUOUS
10
68.3484
20
-81.192
11
68.4544
21
-81.2981
0
LINE
8
BLACK
6
CONTINUOUS
10
68.4544
20
-81.2981
11
68.4638
21
-81.3095
0
LINE
8
BLACK
6
CONTINUOUS
10
68.4638
20
-81.3095
11
68.4707
21
-81.3224
0
LINE
8
BLACK
6
CONTINUOUS
10
68.4707
20
-81.3224
11
68.475
21
-81.3365
0
LINE
8
BLACK
6
CONTINUOUS
10
68.475
20
-81.3365
11
68.4764
21
-81.3511
0
LINE
8
BLACK
6
CONTINUOUS
10
68.4764
20
-81.3511
11
68.475
21
-81.3658
0
LINE
8
BLACK
6
CONTINUOUS
10
68.475
20
-81.3658
11
68.4707
21
-81.3798
0
LINE
8
BLACK
6
CONTINUOUS
10
68.4707
20
-81.3798
11
68.4638
21
-81.3928
0
LINE
8
BLACK
6
CONTINUOUS
10
68.4638
20
-81.3928
11
68.4544
21
-81.4042
0
LINE
8
BLACK
6
CONTINUOUS
10
68.4544
20
-81.4042
11
67.5175
21
-82.3411
0
LINE
8
BLACK
6
CONTINUOUS
10
67.5175
20
-82.3411
11
67.5062
21
-82.3504
0
LINE
8
BLACK
6
CONTINUOUS
10
67.5062
20
-82.3504
11
67.4932
21
-82.3573
0
LINE
8
BLACK
6
CONTINUOUS
10
67.4932
20
-82.3573
11
67.4791
21
-82.3616
0
LINE
8
BLACK
6
CONTINUOUS
10
67.4791
20
-82.3616
11
67.4645
21
-82.363
0
LINE
8
BLACK
6
CONTINUOUS
10
67.4645
20
-82.363
11
67.4499
21
-82.3616
0
LINE
8
BLACK
6
CONTINUOUS
10
67.4499
20
-82.3616
11
67.4358
21
-82.3573
0
LINE
8
BLACK
6
CONTINUOUS
10
67.4358
20
-82.3573
11
67.4228
21
-82.3504
0
LINE
8
BLACK
6
CONTINUOUS
10
67.4228
20
-82.3504
11
67.4115
21
-82.3411
0
LINE
8
BLACK
6
CONTINUOUS
10
67.4115
20
-82.3411
11
67.3054
21
-82.235
0
LINE
8
BLACK
6
CONTINUOUS
10
67.3054
20
-82.235
11
67.2961
21
-82.2236
0
LINE
8
BLACK
6
CONTINUOUS
10
67.2961
20
-82.2236
11
67.2891
21
-82.2107
0
LINE
8
BLACK
6
CONTINUOUS
10
67.2891
20
-82.2107
11
67.2849
21
-82.1966
0
LINE
8
BLACK
6
CONTINUOUS
10
67.2849
20
-82.1966
11
67.2834
21
-82.182
0
LINE
8
BLACK
6
CONTINUOUS
10
67.2834
20
-82.182
11
67.2849
21
-82.1673
0
LINE
8
BLACK
6
CONTINUOUS
10
67.2849
20
-82.1673
11
67.2891
21
-82.1533
0
LINE
8
BLACK
6
CONTINUOUS
10
67.2891
20
-82.1533
11
67.2961
21
-82.1403
0
LINE
8
BLACK
6
CONTINUOUS
10
67.2961
20
-82.1403
11
67.3054
21
-82.1289
0
LINE
8
BLACK
6
CONTINUOUS
10
67.3054
20
-82.1289
11
68.2423
21
-81.192
0
LINE
8
BLACK
6
CONTINUOUS
10
68.2423
20
-81.192
11
68.2537
21
-81.1827
0
LINE
8
BLACK
6
CONTINUOUS
10
68.2537
20
-81.1827
11
68.2666
21
-81.1758
0
LINE
8
BLACK
6
CONTINUOUS
10
68.2666
20
-81.1758
11
68.2807
21
-81.1715
0
LINE
8
BLACK
6
CONTINUOUS
10
68.2807
20
-81.1715
11
68.2953
21
-81.1701
0
LINE
8
BLACK
6
CONTINUOUS
10
68.2953
20
-81.1701
11
68.31
21
-81.1715
0
LINE
8
BLACK
6
CONTINUOUS
10
58.7193
20
-81.1715
11
58.7334
21
-81.1758
0
LINE
8
BLACK
6
CONTINUOUS
10
58.7334
20
-81.1758
11
58.7464
21
-81.1827
0
LINE
8
BLACK
6
CONTINUOUS
10
58.7464
20
-81.1827
11
58.7577
21
-81.192
0
LINE
8
BLACK
6
CONTINUOUS
10
58.7577
20
-81.192
11
59.6946
21
-82.1289
0
LINE
8
BLACK
6
CONTINUOUS
10
59.6946
20
-82.1289
11
59.704
21
-82.1403
0
LINE
8
BLACK
6
CONTINUOUS
10
59.704
20
-82.1403
11
59.7109
21
-82.1533
0
LINE
8
BLACK
6
CONTINUOUS
10
59.7109
20
-82.1533
11
59.7152
21
-82.1673
0
LINE
8
BLACK
6
CONTINUOUS
10
59.7152
20
-82.1673
11
59.7166
21
-82.182
0
LINE
8
BLACK
6
CONTINUOUS
10
59.7166
20
-82.182
11
59.7152
21
-82.1966
0
LINE
8
BLACK
6
CONTINUOUS
10
59.7152
20
-82.1966
11
59.7109
21
-82.2107
0
LINE
8
BLACK
6
CONTINUOUS
10
59.7109
20
-82.2107
11
59.704
21
-82.2236
0
LINE
8
BLACK
6
CONTINUOUS
10
59.704
20
-82.2236
11
59.6946
21
-82.235
0
LINE
8
BLACK
6
CONTINUOUS
10
59.6946
20
-82.235
11
59.5886
21
-82.3411
0
LINE
8
BLACK
6
CONTINUOUS
10
59.5886
20
-82.3411
11
59.5772
21
-82.3504
0
LINE
8
BLACK
6
CONTINUOUS
10
59.5772
20
-82.3504
11
59.5642
21
-82.3573
0
LINE
8
BLACK
6
CONTINUOUS
10
59.5642
20
-82.3573
11
59.5502
21
-82.3616
0
LINE
8
BLACK
6
CONTINUOUS
10
59.5502
20
-82.3616
11
59.5355
21
-82.363
0
LINE
8
BLACK
6
CONTINUOUS
10
59.5355
20
-82.363
11
59.5209
21
-82.3616
0
LINE
8
BLACK
6
CONTINUOUS
10
59.5209
20
-82.3616
11
59.5068
21
-82.3573
0
LINE
8
BLACK
6
CONTINUOUS
10
59.5068
20
-82.3573
11
59.4939
21
-82.3504
0
LINE
8
BLACK
6
CONTINUOUS
10
59.4939
20
-82.3504
11
59.4825
21
-82.3411
0
LINE
8
BLACK
6
CONTINUOUS
10
59.4825
20
-82.3411
11
58.5456
21
-81.4042
0
LINE
8
BLACK
6
CONTINUOUS
10
58.5456
20
-81.4042
11
58.5363
21
-81.3928
0
LINE
8
BLACK
6
CONTINUOUS
10
58.5363
20
-81.3928
11
58.5293
21
-81.3798
0
LINE
8
BLACK
6
CONTINUOUS
10
58.5293
20
-81.3798
11
58.5251
21
-81.3658
0
LINE
8
BLACK
6
CONTINUOUS
10
58.5251
20
-81.3658
11
58.5236
21
-81.3511
0
LINE
8
BLACK
6
CONTINUOUS
10
58.5236
20
-81.3511
11
58.5251
21
-81.3365
0
LINE
8
BLACK
6
CONTINUOUS
10
58.5251
20
-81.3365
11
58.5293
21
-81.3224
0
LINE
8
BLACK
6
CONTINUOUS
10
58.5293
20
-81.3224
11
58.5363
21
-81.3095
0
LINE
8
BLACK
6
CONTINUOUS
10
58.5363
20
-81.3095
11
58.5456
21
-81.2981
0
LINE
8
BLACK
6
CONTINUOUS
10
58.5456
20
-81.2981
11
58.6517
21
-81.192
0
LINE
8
BLACK
6
CONTINUOUS
10
58.6517
20
-81.192
11
58.663
21
-81.1827
0
LINE
8
BLACK
6
CONTINUOUS
10
58.663
20
-81.1827
11
58.676
21
-81.1758
0
LINE
8
BLACK
6
CONTINUOUS
10
58.676
20
-81.1758
11
58.6901
21
-81.1715
0
LINE
8
BLACK
6
CONTINUOUS
10
58.6901
20
-81.1715
11
58.7047
21
-81.1701
0
LINE
8
BLACK
6
CONTINUOUS
10
58.7047
20
-81.1701
11
58.7193
21
-81.1715
0
LINE
8
BLACK
6
CONTINUOUS
10
74.0729
20
-80.818
11
74.087
21
-80.8222
0
LINE
8
BLACK
6
CONTINUOUS
10
74.087
20
-80.8222
11
74.0999
21
-80.8292
0
LINE
8
BLACK
6
CONTINUOUS
10
74.0999
20
-80.8292
11
74.1113
21
-80.8385
0
LINE
8
BLACK
6
CONTINUOUS
10
74.1113
20
-80.8385
11
75.0482
21
-81.7754
0
LINE
8
BLACK
6
CONTINUOUS
10
75.0482
20
-81.7754
11
75.0575
21
-81.7868
0
LINE
8
BLACK
6
CONTINUOUS
10
75.0575
20
-81.7868
11
75.0645
21
-81.7997
0
LINE
8
BLACK
6
CONTINUOUS
10
75.0645
20
-81.7997
11
75.0687
21
-81.8138
0
LINE
8
BLACK
6
CONTINUOUS
10
75.0687
20
-81.8138
11
75.0702
21
-81.8284
0
LINE
8
BLACK
6
CONTINUOUS
10
75.0702
20
-81.8284
11
75.0687
21
-81.8431
0
LINE
8
BLACK
6
CONTINUOUS
10
75.0687
20
-81.8431
11
75.0645
21
-81.8571
0
LINE
8
BLACK
6
CONTINUOUS
10
75.0645
20
-81.8571
11
75.0575
21
-81.8701
0
LINE
8
BLACK
6
CONTINUOUS
10
75.0575
20
-81.8701
11
75.0482
21
-81.8815
0
LINE
8
BLACK
6
CONTINUOUS
10
75.0482
20
-81.8815
11
74.9421
21
-81.9875
0
LINE
8
BLACK
6
CONTINUOUS
10
74.9421
20
-81.9875
11
74.9308
21
-81.9969
0
LINE
8
BLACK
6
CONTINUOUS
10
74.9308
20
-81.9969
11
74.9178
21
-82.0038
0
LINE
8
BLACK
6
CONTINUOUS
10
74.9178
20
-82.0038
11
74.9037
21
-82.0081
0
LINE
8
BLACK
6
CONTINUOUS
10
74.9037
20
-82.0081
11
74.8891
21
-82.0095
0
LINE
8
BLACK
6
CONTINUOUS
10
74.8891
20
-82.0095
11
74.8745
21
-82.0081
0
LINE
8
BLACK
6
CONTINUOUS
10
74.8745
20
-82.0081
11
74.8604
21
-82.0038
0
LINE
8
BLACK
6
CONTINUOUS
10
74.8604
20
-82.0038
11
74.8474
21
-81.9969
0
LINE
8
BLACK
6
CONTINUOUS
10
74.8474
20
-81.9969
11
74.8361
21
-81.9875
0
LINE
8
BLACK
6
CONTINUOUS
10
74.8361
20
-81.9875
11
73.8992
21
-81.0506
0
LINE
8
BLACK
6
CONTINUOUS
10
73.8992
20
-81.0506
11
73.8898
21
-81.0392
0
LINE
8
BLACK
6
CONTINUOUS
10
73.8898
20
-81.0392
11
73.8829
21
-81.0263
0
LINE
8
BLACK
6
CONTINUOUS
10
73.8829
20
-81.0263
11
73.8786
21
-81.0122
0
LINE
8
BLACK
6
CONTINUOUS
10
73.8786
20
-81.0122
11
73.8772
21
-80.9976
0
LINE
8
BLACK
6
CONTINUOUS
10
73.8772
20
-80.9976
11
73.8786
21
-80.9829
0
LINE
8
BLACK
6
CONTINUOUS
10
73.8786
20
-80.9829
11
73.8829
21
-80.9689
0
LINE
8
BLACK
6
CONTINUOUS
10
73.8829
20
-80.9689
11
73.8898
21
-80.9559
0
LINE
8
BLACK
6
CONTINUOUS
10
73.8898
20
-80.9559
11
73.8992
21
-80.9445
0
LINE
8
BLACK
6
CONTINUOUS
10
73.8992
20
-80.9445
11
74.0052
21
-80.8385
0
LINE
8
BLACK
6
CONTINUOUS
10
74.0052
20
-80.8385
11
74.0166
21
-80.8292
0
LINE
8
BLACK
6
CONTINUOUS
10
74.0166
20
-80.8292
11
74.0296
21
-80.8222
0
LINE
8
BLACK
6
CONTINUOUS
10
74.0296
20
-80.8222
11
74.0436
21
-80.818
0
LINE
8
BLACK
6
CONTINUOUS
10
74.0436
20
-80.818
11
74.0583
21
-80.8165
0
LINE
8
BLACK
6
CONTINUOUS
10
74.0583
20
-80.8165
11
74.0729
21
-80.818
0
LINE
8
BLACK
6
CONTINUOUS
10
59.0729
20
-80.818
11
59.0869
21
-80.8222
0
LINE
8
BLACK
6
CONTINUOUS
10
59.0869
20
-80.8222
11
59.0999
21
-80.8292
0
LINE
8
BLACK
6
CONTINUOUS
10
59.0999
20
-80.8292
11
59.1113
21
-80.8385
0
LINE
8
BLACK
6
CONTINUOUS
10
59.1113
20
-80.8385
11
60.0482
21
-81.7754
0
LINE
8
BLACK
6
CONTINUOUS
10
60.0482
20
-81.7754
11
60.0575
21
-81.7868
0
LINE
8
BLACK
6
CONTINUOUS
10
60.0575
20
-81.7868
11
60.0644
21
-81.7997
0
LINE
8
BLACK
6
CONTINUOUS
10
60.0644
20
-81.7997
11
60.0687
21
-81.8138
0
LINE
8
BLACK
6
CONTINUOUS
10
60.0687
20
-81.8138
11
60.0702
21
-81.8284
0
LINE
8
BLACK
6
CONTINUOUS
10
60.0702
20
-81.8284
11
60.0687
21
-81.8431
0
LINE
8
BLACK
6
CONTINUOUS
10
60.0687
20
-81.8431
11
60.0644
21
-81.8571
0
LINE
8
BLACK
6
CONTINUOUS
10
60.0644
20
-81.8571
11
60.0575
21
-81.8701
0
LINE
8
BLACK
6
CONTINUOUS
10
60.0575
20
-81.8701
11
60.0482
21
-81.8815
0
LINE
8
BLACK
6
CONTINUOUS
10
60.0482
20
-81.8815
11
59.9421
21
-81.9875
0
LINE
8
BLACK
6
CONTINUOUS
10
59.9421
20
-81.9875
11
59.9308
21
-81.9969
0
LINE
8
BLACK
6
CONTINUOUS
10
59.9308
20
-81.9969
11
59.9178
21
-82.0038
0
LINE
8
BLACK
6
CONTINUOUS
10
59.9178
20
-82.0038
11
59.9037
21
-82.0081
0
LINE
8
BLACK
6
CONTINUOUS
10
59.9037
20
-82.0081
11
59.8891
21
-82.0095
0
LINE
8
BLACK
6
CONTINUOUS
10
59.8891
20
-82.0095
11
59.8745
21
-82.0081
0
LINE
8
BLACK
6
CONTINUOUS
10
59.8745
20
-82.0081
11
59.8604
21
-82.0038
0
LINE
8
BLACK
6
CONTINUOUS
10
59.8604
20
-82.0038
11
59.8474
21
-81.9969
0
LINE
8
BLACK
6
CONTINUOUS
10
59.8474
20
-81.9969
11
59.8361
21
-81.9875
0
LINE
8
BLACK
6
CONTINUOUS
10
59.8361
20
-81.9875
11
58.8991
21
-81.0506
0
LINE
8
BLACK
6
CONTINUOUS
10
58.8991
20
-81.0506
11
58.8898
21
-81.0392
0
LINE
8
BLACK
6
CONTINUOUS
10
58.8898
20
-81.0392
11
58.8829
21
-81.0263
0
LINE
8
BLACK
6
CONTINUOUS
10
58.8829
20
-81.0263
11
58.8786
21
-81.0122
0
LINE
8
BLACK
6
CONTINUOUS
10
58.8786
20
-81.0122
11
58.8772
21
-80.9976
0
LINE
8
BLACK
6
CONTINUOUS
10
58.8772
20
-80.9976
11
58.8786
21
-80.9829
0
LINE
8
BLACK
6
CONTINUOUS
10
58.8786
20
-80.9829
11
58.8829
21
-80.9689
0
LINE
8
BLACK
6
CONTINUOUS
10
58.8829
20
-80.9689
11
58.8898
21
-80.9559
0
LINE
8
BLACK
6
CONTINUOUS
10
58.8898
20
-80.9559
11
58.8991
21
-80.9445
0
LINE
8
BLACK
6
CONTINUOUS
10
58.8991
20
-80.9445
11
59.0052
21
-80.8385
0
LINE
8
BLACK
6
CONTINUOUS
10
59.0052
20
-80.8385
11
59.0166
21
-80.8292
0
LINE
8
BLACK
6
CONTINUOUS
10
59.0166
20
-80.8292
11
59.0295
21
-80.8222
0
LINE
8
BLACK
6
CONTINUOUS
10
59.0295
20
-80.8222
11
59.0436
21
-80.818
0
LINE
8
BLACK
6
CONTINUOUS
10
59.0436
20
-80.818
11
59.0582
21
-80.8165
0
LINE
8
BLACK
6
CONTINUOUS
10
59.0582
20
-80.8165
11
59.0729
21
-80.818
0
LINE
8
BLACK
6
CONTINUOUS
10
52.9564
20
-80.818
11
52.9705
21
-80.8222
0
LINE
8
BLACK
6
CONTINUOUS
10
52.9705
20
-80.8222
11
52.9834
21
-80.8292
0
LINE
8
BLACK
6
CONTINUOUS
10
52.9834
20
-80.8292
11
52.9948
21
-80.8385
0
LINE
8
BLACK
6
CONTINUOUS
10
52.9948
20
-80.8385
11
53.1009
21
-80.9445
0
LINE
8
BLACK
6
CONTINUOUS
10
53.1009
20
-80.9445
11
53.1102
21
-80.9559
0
LINE
8
BLACK
6
CONTINUOUS
10
53.1102
20
-80.9559
11
53.1171
21
-80.9689
0
LINE
8
BLACK
6
CONTINUOUS
10
53.1171
20
-80.9689
11
53.1214
21
-80.9829
0
LINE
8
BLACK
6
CONTINUOUS
10
53.1214
20
-80.9829
11
53.1228
21
-80.9976
0
LINE
8
BLACK
6
CONTINUOUS
10
53.1228
20
-80.9976
11
53.1214
21
-81.0122
0
LINE
8
BLACK
6
CONTINUOUS
10
53.1214
20
-81.0122
11
53.1171
21
-81.0263
0
LINE
8
BLACK
6
CONTINUOUS
10
53.1171
20
-81.0263
11
53.1102
21
-81.0392
0
LINE
8
BLACK
6
CONTINUOUS
10
53.1102
20
-81.0392
11
53.1009
21
-81.0506
0
LINE
8
BLACK
6
CONTINUOUS
10
53.1009
20
-81.0506
11
52.1639
21
-81.9875
0
LINE
8
BLACK
6
CONTINUOUS
10
52.1639
20
-81.9875
11
52.1526
21
-81.9969
0
LINE
8
BLACK
6
CONTINUOUS
10
52.1526
20
-81.9969
11
52.1396
21
-82.0038
0
LINE
8
BLACK
6
CONTINUOUS
10
52.1396
20
-82.0038
11
52.1255
21
-82.0081
0
LINE
8
BLACK
6
CONTINUOUS
10
52.1255
20
-82.0081
11
52.1109
21
-82.0095
0
LINE
8
BLACK
6
CONTINUOUS
10
52.1109
20
-82.0095
11
52.0963
21
-82.0081
0
LINE
8
BLACK
6
CONTINUOUS
10
52.0963
20
-82.0081
11
52.0822
21
-82.0038
0
LINE
8
BLACK
6
CONTINUOUS
10
52.0822
20
-82.0038
11
52.0692
21
-81.9969
0
LINE
8
BLACK
6
CONTINUOUS
10
52.0692
20
-81.9969
11
52.0579
21
-81.9875
0
LINE
8
BLACK
6
CONTINUOUS
10
52.0579
20
-81.9875
11
51.9518
21
-81.8815
0
LINE
8
BLACK
6
CONTINUOUS
10
51.9518
20
-81.8815
11
51.9425
21
-81.8701
0
LINE
8
BLACK
6
CONTINUOUS
10
51.9425
20
-81.8701
11
51.9356
21
-81.8571
0
LINE
8
BLACK
6
CONTINUOUS
10
51.9356
20
-81.8571
11
51.9313
21
-81.8431
0
LINE
8
BLACK
6
CONTINUOUS
10
51.9313
20
-81.8431
11
51.9298
21
-81.8284
0
LINE
8
BLACK
6
CONTINUOUS
10
51.9298
20
-81.8284
11
51.9313
21
-81.8138
0
LINE
8
BLACK
6
CONTINUOUS
10
51.9313
20
-81.8138
11
51.9356
21
-81.7997
0
LINE
8
BLACK
6
CONTINUOUS
10
51.9356
20
-81.7997
11
51.9425
21
-81.7868
0
LINE
8
BLACK
6
CONTINUOUS
10
51.9425
20
-81.7868
11
51.9518
21
-81.7754
0
LINE
8
BLACK
6
CONTINUOUS
10
51.9518
20
-81.7754
11
52.8887
21
-80.8385
0
LINE
8
BLACK
6
CONTINUOUS
10
52.8887
20
-80.8385
11
52.9001
21
-80.8292
0
LINE
8
BLACK
6
CONTINUOUS
10
52.9001
20
-80.8292
11
52.9131
21
-80.8222
0
LINE
8
BLACK
6
CONTINUOUS
10
52.9131
20
-80.8222
11
52.9271
21
-80.818
0
LINE
8
BLACK
6
CONTINUOUS
10
52.9271
20
-80.818
11
52.9418
21
-80.8165
0
LINE
8
BLACK
6
CONTINUOUS
10
52.9418
20
-80.8165
11
52.9564
21
-80.818
0
LINE
8
BLACK
6
CONTINUOUS
10
67.9564
20
-80.818
11
67.9705
21
-80.8222
0
LINE
8
BLACK
6
CONTINUOUS
10
67.9705
20
-80.8222
11
67.9834
21
-80.8292
0
LINE
8
BLACK
6
CONTINUOUS
10
67.9834
20
-80.8292
11
67.9948
21
-80.8385
0
LINE
8
BLACK
6
CONTINUOUS
10
67.9948
20
-80.8385
11
68.1009
21
-80.9445
0
LINE
8
BLACK
6
CONTINUOUS
10
68.1009
20
-80.9445
11
68.1102
21
-80.9559
0
LINE
8
BLACK
6
CONTINUOUS
10
68.1102
20
-80.9559
11
68.1171
21
-80.9689
0
LINE
8
BLACK
6
CONTINUOUS
10
68.1171
20
-80.9689
11
68.1214
21
-80.9829
0
LINE
8
BLACK
6
CONTINUOUS
10
68.1214
20
-80.9829
11
68.1228
21
-80.9976
0
LINE
8
BLACK
6
CONTINUOUS
10
68.1228
20
-80.9976
11
68.1214
21
-81.0122
0
LINE
8
BLACK
6
CONTINUOUS
10
68.1214
20
-81.0122
11
68.1171
21
-81.0263
0
LINE
8
BLACK
6
CONTINUOUS
10
68.1171
20
-81.0263
11
68.1102
21
-81.0392
0
LINE
8
BLACK
6
CONTINUOUS
10
68.1102
20
-81.0392
11
68.1009
21
-81.0506
0
LINE
8
BLACK
6
CONTINUOUS
10
68.1009
20
-81.0506
11
67.164
21
-81.9875
0
LINE
8
BLACK
6
CONTINUOUS
10
67.164
20
-81.9875
11
67.1526
21
-81.9969
0
LINE
8
BLACK
6
CONTINUOUS
10
67.1526
20
-81.9969
11
67.1396
21
-82.0038
0
LINE
8
BLACK
6
CONTINUOUS
10
67.1396
20
-82.0038
11
67.1256
21
-82.0081
0
LINE
8
BLACK
6
CONTINUOUS
10
67.1256
20
-82.0081
11
67.1109
21
-82.0095
0
LINE
8
BLACK
6
CONTINUOUS
10
67.1109
20
-82.0095
11
67.0963
21
-82.0081
0
LINE
8
BLACK
6
CONTINUOUS
10
67.0963
20
-82.0081
11
67.0822
21
-82.0038
0
LINE
8
BLACK
6
CONTINUOUS
10
67.0822
20
-82.0038
11
67.0693
21
-81.9969
0
LINE
8
BLACK
6
CONTINUOUS
10
67.0693
20
-81.9969
11
67.0579
21
-81.9875
0
LINE
8
BLACK
6
CONTINUOUS
10
67.0579
20
-81.9875
11
66.9518
21
-81.8815
0
LINE
8
BLACK
6
CONTINUOUS
10
66.9518
20
-81.8815
11
66.9425
21
-81.8701
0
LINE
8
BLACK
6
CONTINUOUS
10
66.9425
20
-81.8701
11
66.9356
21
-81.8571
0
LINE
8
BLACK
6
CONTINUOUS
10
66.9356
20
-81.8571
11
66.9313
21
-81.8431
0
LINE
8
BLACK
6
CONTINUOUS
10
66.9313
20
-81.8431
11
66.9299
21
-81.8284
0
LINE
8
BLACK
6
CONTINUOUS
10
66.9299
20
-81.8284
11
66.9313
21
-81.8138
0
LINE
8
BLACK
6
CONTINUOUS
10
66.9313
20
-81.8138
11
66.9356
21
-81.7997
0
LINE
8
BLACK
6
CONTINUOUS
10
66.9356
20
-81.7997
11
66.9425
21
-81.7868
0
LINE
8
BLACK
6
CONTINUOUS
10
66.9425
20
-81.7868
11
66.9518
21
-81.7754
0
LINE
8
BLACK
6
CONTINUOUS
10
66.9518
20
-81.7754
11
67.8887
21
-80.8385
0
LINE
8
BLACK
6
CONTINUOUS
10
67.8887
20
-80.8385
11
67.9001
21
-80.8292
0
LINE
8
BLACK
6
CONTINUOUS
10
67.9001
20
-80.8292
11
67.9131
21
-80.8222
0
LINE
8
BLACK
6
CONTINUOUS
10
67.9131
20
-80.8222
11
67.9271
21
-80.818
0
LINE
8
BLACK
6
CONTINUOUS
10
67.9271
20
-80.818
11
67.9418
21
-80.8165
0
LINE
8
BLACK
6
CONTINUOUS
10
67.9418
20
-80.8165
11
67.9564
21
-80.818
0
LINE
8
BLACK
6
CONTINUOUS
10
74.4264
20
-80.4644
11
74.4405
21
-80.4687
0
LINE
8
BLACK
6
CONTINUOUS
10
74.4405
20
-80.4687
11
74.4535
21
-80.4756
0
LINE
8
BLACK
6
CONTINUOUS
10
74.4535
20
-80.4756
11
74.4648
21
-80.4849
0
LINE
8
BLACK
6
CONTINUOUS
10
74.4648
20
-80.4849
11
75.4018
21
-81.4218
0
LINE
8
BLACK
6
CONTINUOUS
10
75.4018
20
-81.4218
11
75.4111
21
-81.4332
0
LINE
8
BLACK
6
CONTINUOUS
10
75.4111
20
-81.4332
11
75.418
21
-81.4462
0
LINE
8
BLACK
6
CONTINUOUS
10
75.418
20
-81.4462
11
75.4223
21
-81.4602
0
LINE
8
BLACK
6
CONTINUOUS
10
75.4223
20
-81.4602
11
75.4237
21
-81.4749
0
LINE
8
BLACK
6
CONTINUOUS
10
75.4237
20
-81.4749
11
75.4223
21
-81.4895
0
LINE
8
BLACK
6
CONTINUOUS
10
75.4223
20
-81.4895
11
75.418
21
-81.5036
0
LINE
8
BLACK
6
CONTINUOUS
10
75.418
20
-81.5036
11
75.4111
21
-81.5165
0
LINE
8
BLACK
6
CONTINUOUS
10
75.4111
20
-81.5165
11
75.4018
21
-81.5279
0
LINE
8
BLACK
6
CONTINUOUS
10
75.4018
20
-81.5279
11
75.2957
21
-81.634
0
LINE
8
BLACK
6
CONTINUOUS
10
75.2957
20
-81.634
11
75.2843
21
-81.6433
0
LINE
8
BLACK
6
CONTINUOUS
10
75.2843
20
-81.6433
11
75.2714
21
-81.6502
0
LINE
8
BLACK
6
CONTINUOUS
10
75.2714
20
-81.6502
11
75.2573
21
-81.6545
0
LINE
8
BLACK
6
CONTINUOUS
10
75.2573
20
-81.6545
11
75.2427
21
-81.6559
0
LINE
8
BLACK
6
CONTINUOUS
10
75.2427
20
-81.6559
11
75.228
21
-81.6545
0
LINE
8
BLACK
6
CONTINUOUS
10
75.228
20
-81.6545
11
75.214
21
-81.6502
0
LINE
8
BLACK
6
CONTINUOUS
10
75.214
20
-81.6502
11
75.201
21
-81.6433
0
LINE
8
BLACK
6
CONTINUOUS
10
75.201
20
-81.6433
11
75.1896
21
-81.634
0
LINE
8
BLACK
6
CONTINUOUS
10
75.1896
20
-81.634
11
74.2527
21
-80.6971
0
LINE
8
BLACK
6
CONTINUOUS
10
74.2527
20
-80.6971
11
74.2434
21
-80.6857
0
LINE
8
BLACK
6
CONTINUOUS
10
74.2434
20
-80.6857
11
74.2365
21
-80.6727
0
LINE
8
BLACK
6
CONTINUOUS
10
74.2365
20
-80.6727
11
74.2322
21
-80.6587
0
LINE
8
BLACK
6
CONTINUOUS
10
74.2322
20
-80.6587
11
74.2307
21
-80.644
0
LINE
8
BLACK
6
CONTINUOUS
10
74.2307
20
-80.644
11
74.2322
21
-80.6294
0
LINE
8
BLACK
6
CONTINUOUS
10
74.2322
20
-80.6294
11
74.2365
21
-80.6153
0
LINE
8
BLACK
6
CONTINUOUS
10
74.2365
20
-80.6153
11
74.2434
21
-80.6024
0
LINE
8
BLACK
6
CONTINUOUS
10
74.2434
20
-80.6024
11
74.2527
21
-80.591
0
LINE
8
BLACK
6
CONTINUOUS
10
74.2527
20
-80.591
11
74.3588
21
-80.4849
0
LINE
8
BLACK
6
CONTINUOUS
10
74.3588
20
-80.4849
11
74.3701
21
-80.4756
0
LINE
8
BLACK
6
CONTINUOUS
10
74.3701
20
-80.4756
11
74.3831
21
-80.4687
0
LINE
8
BLACK
6
CONTINUOUS
10
74.3831
20
-80.4687
11
74.3972
21
-80.4644
0
LINE
8
BLACK
6
CONTINUOUS
10
74.3972
20
-80.4644
11
74.4118
21
-80.463
0
LINE
8
BLACK
6
CONTINUOUS
10
74.4118
20
-80.463
11
74.4264
21
-80.4644
0
LINE
8
BLACK
6
CONTINUOUS
10
67.6029
20
-80.4644
11
67.6169
21
-80.4687
0
LINE
8
BLACK
6
CONTINUOUS
10
67.6169
20
-80.4687
11
67.6299
21
-80.4756
0
LINE
8
BLACK
6
CONTINUOUS
10
67.6299
20
-80.4756
11
67.6413
21
-80.4849
0
LINE
8
BLACK
6
CONTINUOUS
10
67.6413
20
-80.4849
11
67.7473
21
-80.591
0
LINE
8
BLACK
6
CONTINUOUS
10
67.7473
20
-80.591
11
67.7567
21
-80.6024
0
LINE
8
BLACK
6
CONTINUOUS
10
67.7567
20
-80.6024
11
67.7636
21
-80.6153
0
LINE
8
BLACK
6
CONTINUOUS
10
67.7636
20
-80.6153
11
67.7679
21
-80.6294
0
LINE
8
BLACK
6
CONTINUOUS
10
67.7679
20
-80.6294
11
67.7693
21
-80.644
0
LINE
8
BLACK
6
CONTINUOUS
10
67.7693
20
-80.644
11
67.7679
21
-80.6587
0
LINE
8
BLACK
6
CONTINUOUS
10
67.7679
20
-80.6587
11
67.7636
21
-80.6727
0
LINE
8
BLACK
6
CONTINUOUS
10
67.7636
20
-80.6727
11
67.7567
21
-80.6857
0
LINE
8
BLACK
6
CONTINUOUS
10
67.7567
20
-80.6857
11
67.7473
21
-80.6971
0
LINE
8
BLACK
6
CONTINUOUS
10
67.7473
20
-80.6971
11
66.8104
21
-81.634
0
LINE
8
BLACK
6
CONTINUOUS
10
66.8104
20
-81.634
11
66.799
21
-81.6433
0
LINE
8
BLACK
6
CONTINUOUS
10
66.799
20
-81.6433
11
66.7861
21
-81.6502
0
LINE
8
BLACK
6
CONTINUOUS
10
66.7861
20
-81.6502
11
66.772
21
-81.6545
0
LINE
8
BLACK
6
CONTINUOUS
10
66.772
20
-81.6545
11
66.7574
21
-81.6559
0
LINE
8
BLACK
6
CONTINUOUS
10
66.7574
20
-81.6559
11
66.7427
21
-81.6545
0
LINE
8
BLACK
6
CONTINUOUS
10
66.7427
20
-81.6545
11
66.7287
21
-81.6502
0
LINE
8
BLACK
6
CONTINUOUS
10
66.7287
20
-81.6502
11
66.7157
21
-81.6433
0
LINE
8
BLACK
6
CONTINUOUS
10
66.7157
20
-81.6433
11
66.7043
21
-81.634
0
LINE
8
BLACK
6
CONTINUOUS
10
66.7043
20
-81.634
11
66.5983
21
-81.5279
0
LINE
8
BLACK
6
CONTINUOUS
10
66.5983
20
-81.5279
11
66.589
21
-81.5165
0
LINE
8
BLACK
6
CONTINUOUS
10
66.589
20
-81.5165
11
66.582
21
-81.5036
0
LINE
8
BLACK
6
CONTINUOUS
10
66.582
20
-81.5036
11
66.5778
21
-81.4895
0
LINE
8
BLACK
6
CONTINUOUS
10
66.5778
20
-81.4895
11
66.5763
21
-81.4749
0
LINE
8
BLACK
6
CONTINUOUS
10
66.5763
20
-81.4749
11
66.5778
21
-81.4602
0
LINE
8
BLACK
6
CONTINUOUS
10
66.5778
20
-81.4602
11
66.582
21
-81.4462
0
LINE
8
BLACK
6
CONTINUOUS
10
66.582
20
-81.4462
11
66.589
21
-81.4332
0
LINE
8
BLACK
6
CONTINUOUS
10
66.589
20
-81.4332
11
66.5983
21
-81.4218
0
LINE
8
BLACK
6
CONTINUOUS
10
66.5983
20
-81.4218
11
67.5352
21
-80.4849
0
LINE
8
BLACK
6
CONTINUOUS
10
67.5352
20
-80.4849
11
67.5466
21
-80.4756
0
LINE
8
BLACK
6
CONTINUOUS
10
67.5466
20
-80.4756
11
67.5595
21
-80.4687
0
LINE
8
BLACK
6
CONTINUOUS
10
67.5595
20
-80.4687
11
67.5736
21
-80.4644
0
LINE
8
BLACK
6
CONTINUOUS
10
67.5736
20
-80.4644
11
67.5882
21
-80.463
0
LINE
8
BLACK
6
CONTINUOUS
10
67.5882
20
-80.463
11
67.6029
21
-80.4644
0
LINE
8
BLACK
6
CONTINUOUS
10
59.4264
20
-80.4644
11
59.4405
21
-80.4687
0
LINE
8
BLACK
6
CONTINUOUS
10
59.4405
20
-80.4687
11
59.4535
21
-80.4756
0
LINE
8
BLACK
6
CONTINUOUS
10
59.4535
20
-80.4756
11
59.4648
21
-80.4849
0
LINE
8
BLACK
6
CONTINUOUS
10
59.4648
20
-80.4849
11
60.4017
21
-81.4218
0
LINE
8
BLACK
6
CONTINUOUS
10
60.4017
20
-81.4218
11
60.4111
21
-81.4332
0
LINE
8
BLACK
6
CONTINUOUS
10
60.4111
20
-81.4332
11
60.418
21
-81.4462
0
LINE
8
BLACK
6
CONTINUOUS
10
60.418
20
-81.4462
11
60.4223
21
-81.4602
0
LINE
8
BLACK
6
CONTINUOUS
10
60.4223
20
-81.4602
11
60.4237
21
-81.4749
0
LINE
8
BLACK
6
CONTINUOUS
10
60.4237
20
-81.4749
11
60.4223
21
-81.4895
0
LINE
8
BLACK
6
CONTINUOUS
10
60.4223
20
-81.4895
11
60.418
21
-81.5036
0
LINE
8
BLACK
6
CONTINUOUS
10
60.418
20
-81.5036
11
60.4111
21
-81.5165
0
LINE
8
BLACK
6
CONTINUOUS
10
60.4111
20
-81.5165
11
60.4017
21
-81.5279
0
LINE
8
BLACK
6
CONTINUOUS
10
60.4017
20
-81.5279
11
60.2957
21
-81.634
0
LINE
8
BLACK
6
CONTINUOUS
10
60.2957
20
-81.634
11
60.2843
21
-81.6433
0
LINE
8
BLACK
6
CONTINUOUS
10
60.2843
20
-81.6433
11
60.2713
21
-81.6502
0
LINE
8
BLACK
6
CONTINUOUS
10
60.2713
20
-81.6502
11
60.2573
21
-81.6545
0
LINE
8
BLACK
6
CONTINUOUS
10
60.2573
20
-81.6545
11
60.2426
21
-81.6559
0
LINE
8
BLACK
6
CONTINUOUS
10
60.2426
20
-81.6559
11
60.228
21
-81.6545
0
LINE
8
BLACK
6
CONTINUOUS
10
60.228
20
-81.6545
11
60.2139
21
-81.6502
0
LINE
8
BLACK
6
CONTINUOUS
10
60.2139
20
-81.6502
11
60.201
21
-81.6433
0
LINE
8
BLACK
6
CONTINUOUS
10
60.201
20
-81.6433
11
60.1896
21
-81.634
0
LINE
8
BLACK
6
CONTINUOUS
10
60.1896
20
-81.634
11
59.2527
21
-80.6971
0
LINE
8
BLACK
6
CONTINUOUS
10
59.2527
20
-80.6971
11
59.2434
21
-80.6857
0
LINE
8
BLACK
6
CONTINUOUS
10
59.2434
20
-80.6857
11
59.2364
21
-80.6727
0
LINE
8
BLACK
6
CONTINUOUS
10
59.2364
20
-80.6727
11
59.2322
21
-80.6587
0
LINE
8
BLACK
6
CONTINUOUS
10
59.2322
20
-80.6587
11
59.2307
21
-80.644
0
LINE
8
BLACK
6
CONTINUOUS
10
59.2307
20
-80.644
11
59.2322
21
-80.6294
0
LINE
8
BLACK
6
CONTINUOUS
10
59.2322
20
-80.6294
11
59.2364
21
-80.6153
0
LINE
8
BLACK
6
CONTINUOUS
10
59.2364
20
-80.6153
11
59.2434
21
-80.6024
0
LINE
8
BLACK
6
CONTINUOUS
10
59.2434
20
-80.6024
11
59.2527
21
-80.591
0
LINE
8
BLACK
6
CONTINUOUS
10
59.2527
20
-80.591
11
59.3588
21
-80.4849
0
LINE
8
BLACK
6
CONTINUOUS
10
59.3588
20
-80.4849
11
59.3701
21
-80.4756
0
LINE
8
BLACK
6
CONTINUOUS
10
59.3701
20
-80.4756
11
59.3831
21
-80.4687
0
LINE
8
BLACK
6
CONTINUOUS
10
59.3831
20
-80.4687
11
59.3972
21
-80.4644
0
LINE
8
BLACK
6
CONTINUOUS
10
59.3972
20
-80.4644
11
59.4118
21
-80.463
0
LINE
8
BLACK
6
CONTINUOUS
10
59.4118
20
-80.463
11
59.4264
21
-80.4644
0
LINE
8
BLACK
6
CONTINUOUS
10
52.6028
20
-80.4644
11
52.6169
21
-80.4687
0
LINE
8
BLACK
6
CONTINUOUS
10
52.6169
20
-80.4687
11
52.6299
21
-80.4756
0
LINE
8
BLACK
6
CONTINUOUS
10
52.6299
20
-80.4756
11
52.6412
21
-80.4849
0
LINE
8
BLACK
6
CONTINUOUS
10
52.6412
20
-80.4849
11
52.7473
21
-80.591
0
LINE
8
BLACK
6
CONTINUOUS
10
52.7473
20
-80.591
11
52.7566
21
-80.6024
0
LINE
8
BLACK
6
CONTINUOUS
10
52.7566
20
-80.6024
11
52.7636
21
-80.6153
0
LINE
8
BLACK
6
CONTINUOUS
10
52.7636
20
-80.6153
11
52.7678
21
-80.6294
0
LINE
8
BLACK
6
CONTINUOUS
10
52.7678
20
-80.6294
11
52.7693
21
-80.644
0
LINE
8
BLACK
6
CONTINUOUS
10
52.7693
20
-80.644
11
52.7678
21
-80.6587
0
LINE
8
BLACK
6
CONTINUOUS
10
52.7678
20
-80.6587
11
52.7636
21
-80.6727
0
LINE
8
BLACK
6
CONTINUOUS
10
52.7636
20
-80.6727
11
52.7566
21
-80.6857
0
LINE
8
BLACK
6
CONTINUOUS
10
52.7566
20
-80.6857
11
52.7473
21
-80.6971
0
LINE
8
BLACK
6
CONTINUOUS
10
52.7473
20
-80.6971
11
51.8104
21
-81.634
0
LINE
8
BLACK
6
CONTINUOUS
10
51.8104
20
-81.634
11
51.799
21
-81.6433
0
LINE
8
BLACK
6
CONTINUOUS
10
51.799
20
-81.6433
11
51.7861
21
-81.6502
0
LINE
8
BLACK
6
CONTINUOUS
10
51.7861
20
-81.6502
11
51.772
21
-81.6545
0
LINE
8
BLACK
6
CONTINUOUS
10
51.772
20
-81.6545
11
51.7574
21
-81.6559
0
LINE
8
BLACK
6
CONTINUOUS
10
51.7574
20
-81.6559
11
51.7427
21
-81.6545
0
LINE
8
BLACK
6
CONTINUOUS
10
51.7427
20
-81.6545
11
51.7287
21
-81.6502
0
LINE
8
BLACK
6
CONTINUOUS
10
51.7287
20
-81.6502
11
51.7157
21
-81.6433
0
LINE
8
BLACK
6
CONTINUOUS
10
51.7157
20
-81.6433
11
51.7043
21
-81.634
0
LINE
8
BLACK
6
CONTINUOUS
10
51.7043
20
-81.634
11
51.5983
21
-81.5279
0
LINE
8
BLACK
6
CONTINUOUS
10
51.5983
20
-81.5279
11
51.5889
21
-81.5165
0
LINE
8
BLACK
6
CONTINUOUS
10
51.5889
20
-81.5165
11
51.582
21
-81.5036
0
LINE
8
BLACK
6
CONTINUOUS
10
51.582
20
-81.5036
11
51.5777
21
-81.4895
0
LINE
8
BLACK
6
CONTINUOUS
10
51.5777
20
-81.4895
11
51.5763
21
-81.4749
0
LINE
8
BLACK
6
CONTINUOUS
10
51.5763
20
-81.4749
11
51.5777
21
-81.4602
0
LINE
8
BLACK
6
CONTINUOUS
10
51.5777
20
-81.4602
11
51.582
21
-81.4462
0
LINE
8
BLACK
6
CONTINUOUS
10
51.582
20
-81.4462
11
51.5889
21
-81.4332
0
LINE
8
BLACK
6
CONTINUOUS
10
51.5889
20
-81.4332
11
51.5983
21
-81.4218
0
LINE
8
BLACK
6
CONTINUOUS
10
51.5983
20
-81.4218
11
52.5352
21
-80.4849
0
LINE
8
BLACK
6
CONTINUOUS
10
52.5352
20
-80.4849
11
52.5465
21
-80.4756
0
LINE
8
BLACK
6
CONTINUOUS
10
52.5465
20
-80.4756
11
52.5595
21
-80.4687
0
LINE
8
BLACK
6
CONTINUOUS
10
52.5595
20
-80.4687
11
52.5736
21
-80.4644
0
LINE
8
BLACK
6
CONTINUOUS
10
52.5736
20
-80.4644
11
52.5882
21
-80.463
0
LINE
8
BLACK
6
CONTINUOUS
10
52.5882
20
-80.463
11
52.6028
21
-80.4644
0
LINE
8
BLACK
6
CONTINUOUS
10
59.78
20
-80.1108
11
59.794
21
-80.1151
0
LINE
8
BLACK
6
CONTINUOUS
10
59.794
20
-80.1151
11
59.807
21
-80.122
0
LINE
8
BLACK
6
CONTINUOUS
10
59.807
20
-80.122
11
59.8184
21
-80.1314
0
LINE
8
BLACK
6
CONTINUOUS
10
59.8184
20
-80.1314
11
60.7553
21
-81.0683
0
LINE
8
BLACK
6
CONTINUOUS
10
60.7553
20
-81.0683
11
60.7646
21
-81.0797
0
LINE
8
BLACK
6
CONTINUOUS
10
60.7646
20
-81.0797
11
60.7716
21
-81.0926
0
LINE
8
BLACK
6
CONTINUOUS
10
60.7716
20
-81.0926
11
60.7758
21
-81.1067
0
LINE
8
BLACK
6
CONTINUOUS
10
60.7758
20
-81.1067
11
60.7773
21
-81.1213
0
LINE
8
BLACK
6
CONTINUOUS
10
60.7773
20
-81.1213
11
60.7758
21
-81.136
0
LINE
8
BLACK
6
CONTINUOUS
10
60.7758
20
-81.136
11
60.7716
21
-81.15
0
LINE
8
BLACK
6
CONTINUOUS
10
60.7716
20
-81.15
11
60.7646
21
-81.163
0
LINE
8
BLACK
6
CONTINUOUS
10
60.7646
20
-81.163
11
60.7553
21
-81.1744
0
LINE
8
BLACK
6
CONTINUOUS
10
60.7553
20
-81.1744
11
60.6492
21
-81.2804
0
LINE
8
BLACK
6
CONTINUOUS
10
60.6492
20
-81.2804
11
60.6379
21
-81.2897
0
LINE
8
BLACK
6
CONTINUOUS
10
60.6379
20
-81.2897
11
60.6249
21
-81.2967
0
LINE
8
BLACK
6
CONTINUOUS
10
60.6249
20
-81.2967
11
60.6108
21
-81.3009
0
LINE
8
BLACK
6
CONTINUOUS
10
60.6108
20
-81.3009
11
60.5962
21
-81.3024
0
LINE
8
BLACK
6
CONTINUOUS
10
60.5962
20
-81.3024
11
60.5816
21
-81.3009
0
LINE
8
BLACK
6
CONTINUOUS
10
60.5816
20
-81.3009
11
60.5675
21
-81.2967
0
LINE
8
BLACK
6
CONTINUOUS
10
60.5675
20
-81.2967
11
60.5545
21
-81.2897
0
LINE
8
BLACK
6
CONTINUOUS
10
60.5545
20
-81.2897
11
60.5432
21
-81.2804
0
LINE
8
BLACK
6
CONTINUOUS
10
60.5432
20
-81.2804
11
59.6062
21
-80.3435
0
LINE
8
BLACK
6
CONTINUOUS
10
59.6062
20
-80.3435
11
59.5969
21
-80.3321
0
LINE
8
BLACK
6
CONTINUOUS
10
59.5969
20
-80.3321
11
59.59
21
-80.3192
0
LINE
8
BLACK
6
CONTINUOUS
10
59.59
20
-80.3192
11
59.5857
21
-80.3051
0
LINE
8
BLACK
6
CONTINUOUS
10
59.5857
20
-80.3051
11
59.5843
21
-80.2905
0
LINE
8
BLACK
6
CONTINUOUS
10
59.5843
20
-80.2905
11
59.5857
21
-80.2758
0
LINE
8
BLACK
6
CONTINUOUS
10
59.5857
20
-80.2758
11
59.59
21
-80.2618
0
LINE
8
BLACK
6
CONTINUOUS
10
59.59
20
-80.2618
11
59.5969
21
-80.2488
0
LINE
8
BLACK
6
CONTINUOUS
10
59.5969
20
-80.2488
11
59.6062
21
-80.2374
0
LINE
8
BLACK
6
CONTINUOUS
10
59.6062
20
-80.2374
11
59.7123
21
-80.1314
0
LINE
8
BLACK
6
CONTINUOUS
10
59.7123
20
-80.1314
11
59.7237
21
-80.122
0
LINE
8
BLACK
6
CONTINUOUS
10
59.7237
20
-80.122
11
59.7366
21
-80.1151
0
LINE
8
BLACK
6
CONTINUOUS
10
59.7366
20
-80.1151
11
59.7507
21
-80.1108
0
LINE
8
BLACK
6
CONTINUOUS
10
59.7507
20
-80.1108
11
59.7653
21
-80.1094
0
LINE
8
BLACK
6
CONTINUOUS
10
59.7653
20
-80.1094
11
59.78
21
-80.1108
0
LINE
8
BLACK
6
CONTINUOUS
10
74.78
20
-80.1108
11
74.7941
21
-80.1151
0
LINE
8
BLACK
6
CONTINUOUS
10
74.7941
20
-80.1151
11
74.807
21
-80.122
0
LINE
8
BLACK
6
CONTINUOUS
10
74.807
20
-80.122
11
74.8184
21
-80.1314
0
LINE
8
BLACK
6
CONTINUOUS
10
74.8184
20
-80.1314
11
75.7553
21
-81.0683
0
LINE
8
BLACK
6
CONTINUOUS
10
75.7553
20
-81.0683
11
75.7646
21
-81.0797
0
LINE
8
BLACK
6
CONTINUOUS
10
75.7646
20
-81.0797
11
75.7716
21
-81.0926
0
LINE
8
BLACK
6
CONTINUOUS
10
75.7716
20
-81.0926
11
75.7758
21
-81.1067
0
LINE
8
BLACK
6
CONTINUOUS
10
75.7758
20
-81.1067
11
75.7773
21
-81.1213
0
LINE
8
BLACK
6
CONTINUOUS
10
75.7773
20
-81.1213
11
75.7758
21
-81.136
0
LINE
8
BLACK
6
CONTINUOUS
10
75.7758
20
-81.136
11
75.7716
21
-81.15
0
LINE
8
BLACK
6
CONTINUOUS
10
75.7716
20
-81.15
11
75.7646
21
-81.163
0
LINE
8
BLACK
6
CONTINUOUS
10
75.7646
20
-81.163
11
75.7553
21
-81.1744
0
LINE
8
BLACK
6
CONTINUOUS
10
75.7553
20
-81.1744
11
75.6492
21
-81.2804
0
LINE
8
BLACK
6
CONTINUOUS
10
75.6492
20
-81.2804
11
75.6379
21
-81.2897
0
LINE
8
BLACK
6
CONTINUOUS
10
75.6379
20
-81.2897
11
75.6249
21
-81.2967
0
LINE
8
BLACK
6
CONTINUOUS
10
75.6249
20
-81.2967
11
75.6108
21
-81.3009
0
LINE
8
BLACK
6
CONTINUOUS
10
75.6108
20
-81.3009
11
75.5962
21
-81.3024
0
LINE
8
BLACK
6
CONTINUOUS
10
75.5962
20
-81.3024
11
75.5816
21
-81.3009
0
LINE
8
BLACK
6
CONTINUOUS
10
75.5816
20
-81.3009
11
75.5675
21
-81.2967
0
LINE
8
BLACK
6
CONTINUOUS
10
75.5675
20
-81.2967
11
75.5545
21
-81.2897
0
LINE
8
BLACK
6
CONTINUOUS
10
75.5545
20
-81.2897
11
75.5432
21
-81.2804
0
LINE
8
BLACK
6
CONTINUOUS
10
75.5432
20
-81.2804
11
74.6063
21
-80.3435
0
LINE
8
BLACK
6
CONTINUOUS
10
74.6063
20
-80.3435
11
74.5969
21
-80.3321
0
LINE
8
BLACK
6
CONTINUOUS
10
74.5969
20
-80.3321
11
74.59
21
-80.3192
0
LINE
8
BLACK
6
CONTINUOUS
10
74.59
20
-80.3192
11
74.5857
21
-80.3051
0
LINE
8
BLACK
6
CONTINUOUS
10
74.5857
20
-80.3051
11
74.5843
21
-80.2905
0
LINE
8
BLACK
6
CONTINUOUS
10
74.5843
20
-80.2905
11
74.5857
21
-80.2758
0
LINE
8
BLACK
6
CONTINUOUS
10
74.5857
20
-80.2758
11
74.59
21
-80.2618
0
LINE
8
BLACK
6
CONTINUOUS
10
74.59
20
-80.2618
11
74.5969
21
-80.2488
0
LINE
8
BLACK
6
CONTINUOUS
10
74.5969
20
-80.2488
11
74.6063
21
-80.2374
0
LINE
8
BLACK
6
CONTINUOUS
10
74.6063
20
-80.2374
11
74.7123
21
-80.1314
0
LINE
8
BLACK
6
CONTINUOUS
10
74.7123
20
-80.1314
11
74.7237
21
-80.122
0
LINE
8
BLACK
6
CONTINUOUS
10
74.7237
20
-80.122
11
74.7367
21
-80.1151
0
LINE
8
BLACK
6
CONTINUOUS
10
74.7367
20
-80.1151
11
74.7507
21
-80.1108
0
LINE
8
BLACK
6
CONTINUOUS
10
74.7507
20
-80.1108
11
74.7654
21
-80.1094
0
LINE
8
BLACK
6
CONTINUOUS
10
74.7654
20
-80.1094
11
74.78
21
-80.1108
0
LINE
8
BLACK
6
CONTINUOUS
10
52.2493
20
-80.1108
11
52.2634
21
-80.1151
0
LINE
8
BLACK
6
CONTINUOUS
10
52.2634
20
-80.1151
11
52.2763
21
-80.122
0
LINE
8
BLACK
6
CONTINUOUS
10
52.2763
20
-80.122
11
52.2877
21
-80.1314
0
LINE
8
BLACK
6
CONTINUOUS
10
52.2877
20
-80.1314
11
52.3938
21
-80.2374
0
LINE
8
BLACK
6
CONTINUOUS
10
52.3938
20
-80.2374
11
52.4031
21
-80.2488
0
LINE
8
BLACK
6
CONTINUOUS
10
52.4031
20
-80.2488
11
52.41
21
-80.2618
0
LINE
8
BLACK
6
CONTINUOUS
10
52.41
20
-80.2618
11
52.4143
21
-80.2758
0
LINE
8
BLACK
6
CONTINUOUS
10
52.4143
20
-80.2758
11
52.4157
21
-80.2905
0
LINE
8
BLACK
6
CONTINUOUS
10
52.4157
20
-80.2905
11
52.4143
21
-80.3051
0
LINE
8
BLACK
6
CONTINUOUS
10
52.4143
20
-80.3051
11
52.41
21
-80.3192
0
LINE
8
BLACK
6
CONTINUOUS
10
52.41
20
-80.3192
11
52.4031
21
-80.3321
0
LINE
8
BLACK
6
CONTINUOUS
10
52.4031
20
-80.3321
11
52.3938
21
-80.3435
0
LINE
8
BLACK
6
CONTINUOUS
10
52.3938
20
-80.3435
11
51.4568
21
-81.2804
0
LINE
8
BLACK
6
CONTINUOUS
10
51.4568
20
-81.2804
11
51.4455
21
-81.2897
0
LINE
8
BLACK
6
CONTINUOUS
10
51.4455
20
-81.2897
11
51.4325
21
-81.2967
0
LINE
8
BLACK
6
CONTINUOUS
10
51.4325
20
-81.2967
11
51.4184
21
-81.3009
0
LINE
8
BLACK
6
CONTINUOUS
10
51.4184
20
-81.3009
11
51.4038
21
-81.3024
0
LINE
8
BLACK
6
CONTINUOUS
10
51.4038
20
-81.3024
11
51.3892
21
-81.3009
0
LINE
8
BLACK
6
CONTINUOUS
10
51.3892
20
-81.3009
11
51.3751
21
-81.2967
0
LINE
8
BLACK
6
CONTINUOUS
10
51.3751
20
-81.2967
11
51.3621
21
-81.2897
0
LINE
8
BLACK
6
CONTINUOUS
10
51.3621
20
-81.2897
11
51.3508
21
-81.2804
0
LINE
8
BLACK
6
CONTINUOUS
10
51.3508
20
-81.2804
11
51.2447
21
-81.1744
0
LINE
8
BLACK
6
CONTINUOUS
10
51.2447
20
-81.1744
11
51.2354
21
-81.163
0
LINE
8
BLACK
6
CONTINUOUS
10
51.2354
20
-81.163
11
51.2284
21
-81.15
0
LINE
8
BLACK
6
CONTINUOUS
10
51.2284
20
-81.15
11
51.2242
21
-81.136
0
LINE
8
BLACK
6
CONTINUOUS
10
51.2242
20
-81.136
11
51.2227
21
-81.1213
0
LINE
8
BLACK
6
CONTINUOUS
10
51.2227
20
-81.1213
11
51.2242
21
-81.1067
0
LINE
8
BLACK
6
CONTINUOUS
10
51.2242
20
-81.1067
11
51.2284
21
-81.0926
0
LINE
8
BLACK
6
CONTINUOUS
10
51.2284
20
-81.0926
11
51.2354
21
-81.0797
0
LINE
8
BLACK
6
CONTINUOUS
10
51.2354
20
-81.0797
11
51.2447
21
-81.0683
0
LINE
8
BLACK
6
CONTINUOUS
10
51.2447
20
-81.0683
11
52.1816
21
-80.1314
0
LINE
8
BLACK
6
CONTINUOUS
10
52.1816
20
-80.1314
11
52.193
21
-80.122
0
LINE
8
BLACK
6
CONTINUOUS
10
52.193
20
-80.122
11
52.206
21
-80.1151
0
LINE
8
BLACK
6
CONTINUOUS
10
52.206
20
-80.1151
11
52.22
21
-80.1108
0
LINE
8
BLACK
6
CONTINUOUS
10
52.22
20
-80.1108
11
52.2347
21
-80.1094
0
LINE
8
BLACK
6
CONTINUOUS
10
52.2347
20
-80.1094
11
52.2493
21
-80.1108
0
LINE
8
BLACK
6
CONTINUOUS
10
67.2493
20
-80.1108
11
67.2634
21
-80.1151
0
LINE
8
BLACK
6
CONTINUOUS
10
67.2634
20
-80.1151
11
67.2763
21
-80.122
0
LINE
8
BLACK
6
CONTINUOUS
10
67.2763
20
-80.122
11
67.2877
21
-80.1314
0
LINE
8
BLACK
6
CONTINUOUS
10
67.2877
20
-80.1314
11
67.3938
21
-80.2374
0
LINE
8
BLACK
6
CONTINUOUS
10
67.3938
20
-80.2374
11
67.4031
21
-80.2488
0
LINE
8
BLACK
6
CONTINUOUS
10
67.4031
20
-80.2488
11
67.41
21
-80.2618
0
LINE
8
BLACK
6
CONTINUOUS
10
67.41
20
-80.2618
11
67.4143
21
-80.2758
0
LINE
8
BLACK
6
CONTINUOUS
10
67.4143
20
-80.2758
11
67.4157
21
-80.2905
0
LINE
8
BLACK
6
CONTINUOUS
10
67.4157
20
-80.2905
11
67.4143
21
-80.3051
0
LINE
8
BLACK
6
CONTINUOUS
10
67.4143
20
-80.3051
11
67.41
21
-80.3192
0
LINE
8
BLACK
6
CONTINUOUS
10
67.41
20
-80.3192
11
67.4031
21
-80.3321
0
LINE
8
BLACK
6
CONTINUOUS
10
67.4031
20
-80.3321
11
67.3938
21
-80.3435
0
LINE
8
BLACK
6
CONTINUOUS
10
67.3938
20
-80.3435
11
66.4569
21
-81.2804
0
LINE
8
BLACK
6
CONTINUOUS
10
66.4569
20
-81.2804
11
66.4455
21
-81.2897
0
LINE
8
BLACK
6
CONTINUOUS
10
66.4455
20
-81.2897
11
66.4325
21
-81.2967
0
LINE
8
BLACK
6
CONTINUOUS
10
66.4325
20
-81.2967
11
66.4185
21
-81.3009
0
LINE
8
BLACK
6
CONTINUOUS
10
66.4185
20
-81.3009
11
66.4038
21
-81.3024
0
LINE
8
BLACK
6
CONTINUOUS
10
66.4038
20
-81.3024
11
66.3892
21
-81.3009
0
LINE
8
BLACK
6
CONTINUOUS
10
66.3892
20
-81.3009
11
66.3751
21
-81.2967
0
LINE
8
BLACK
6
CONTINUOUS
10
66.3751
20
-81.2967
11
66.3622
21
-81.2897
0
LINE
8
BLACK
6
CONTINUOUS
10
66.3622
20
-81.2897
11
66.3508
21
-81.2804
0
LINE
8
BLACK
6
CONTINUOUS
10
66.3508
20
-81.2804
11
66.2447
21
-81.1744
0
LINE
8
BLACK
6
CONTINUOUS
10
66.2447
20
-81.1744
11
66.2354
21
-81.163
0
LINE
8
BLACK
6
CONTINUOUS
10
66.2354
20
-81.163
11
66.2285
21
-81.15
0
LINE
8
BLACK
6
CONTINUOUS
10
66.2285
20
-81.15
11
66.2242
21
-81.136
0
LINE
8
BLACK
6
CONTINUOUS
10
66.2242
20
-81.136
11
66.2228
21
-81.1213
0
LINE
8
BLACK
6
CONTINUOUS
10
66.2228
20
-81.1213
11
66.2242
21
-81.1067
0
LINE
8
BLACK
6
CONTINUOUS
10
66.2242
20
-81.1067
11
66.2285
21
-81.0926
0
LINE
8
BLACK
6
CONTINUOUS
10
66.2285
20
-81.0926
11
66.2354
21
-81.0797
0
LINE
8
BLACK
6
CONTINUOUS
10
66.2354
20
-81.0797
11
66.2447
21
-81.0683
0
LINE
8
BLACK
6
CONTINUOUS
10
66.2447
20
-81.0683
11
67.1816
21
-80.1314
0
LINE
8
BLACK
6
CONTINUOUS
10
67.1816
20
-80.1314
11
67.193
21
-80.122
0
LINE
8
BLACK
6
CONTINUOUS
10
67.193
20
-80.122
11
67.206
21
-80.1151
0
LINE
8
BLACK
6
CONTINUOUS
10
67.206
20
-80.1151
11
67.22
21
-80.1108
0
LINE
8
BLACK
6
CONTINUOUS
10
67.22
20
-80.1108
11
67.2347
21
-80.1094
0
LINE
8
BLACK
6
CONTINUOUS
10
67.2347
20
-80.1094
11
67.2493
21
-80.1108
0
LINE
8
BLACK
6
CONTINUOUS
10
75.1335
20
-79.7573
11
75.1476
21
-79.7616
0
LINE
8
BLACK
6
CONTINUOUS
10
75.1476
20
-79.7616
11
75.1606
21
-79.7685
0
LINE
8
BLACK
6
CONTINUOUS
10
75.1606
20
-79.7685
11
75.1719
21
-79.7778
0
LINE
8
BLACK
6
CONTINUOUS
10
75.1719
20
-79.7778
11
76.1089
21
-80.7147
0
LINE
8
BLACK
6
CONTINUOUS
10
76.1089
20
-80.7147
11
76.1182
21
-80.7261
0
LINE
8
BLACK
6
CONTINUOUS
10
76.1182
20
-80.7261
11
76.1251
21
-80.7391
0
LINE
8
BLACK
6
CONTINUOUS
10
76.1251
20
-80.7391
11
76.1294
21
-80.7531
0
LINE
8
BLACK
6
CONTINUOUS
10
76.1294
20
-80.7531
11
76.1308
21
-80.7678
0
LINE
8
BLACK
6
CONTINUOUS
10
76.1308
20
-80.7678
11
76.1294
21
-80.7824
0
LINE
8
BLACK
6
CONTINUOUS
10
76.1294
20
-80.7824
11
76.1251
21
-80.7965
0
LINE
8
BLACK
6
CONTINUOUS
10
76.1251
20
-80.7965
11
76.1182
21
-80.8094
0
LINE
8
BLACK
6
CONTINUOUS
10
76.1182
20
-80.8094
11
76.1089
21
-80.8208
0
LINE
8
BLACK
6
CONTINUOUS
10
76.1089
20
-80.8208
11
76.0028
21
-80.9269
0
LINE
8
BLACK
6
CONTINUOUS
10
76.0028
20
-80.9269
11
75.9914
21
-80.9362
0
LINE
8
BLACK
6
CONTINUOUS
10
75.9914
20
-80.9362
11
75.9785
21
-80.9431
0
LINE
8
BLACK
6
CONTINUOUS
10
75.9785
20
-80.9431
11
75.9644
21
-80.9474
0
LINE
8
BLACK
6
CONTINUOUS
10
75.9644
20
-80.9474
11
75.9498
21
-80.9488
0
LINE
8
BLACK
6
CONTINUOUS
10
75.9498
20
-80.9488
11
75.9351
21
-80.9474
0
LINE
8
BLACK
6
CONTINUOUS
10
75.9351
20
-80.9474
11
75.9211
21
-80.9431
0
LINE
8
BLACK
6
CONTINUOUS
10
75.9211
20
-80.9431
11
75.9081
21
-80.9362
0
LINE
8
BLACK
6
CONTINUOUS
10
75.9081
20
-80.9362
11
75.8967
21
-80.9269
0
LINE
8
BLACK
6
CONTINUOUS
10
75.8967
20
-80.9269
11
74.9598
21
-79.99
0
LINE
8
BLACK
6
CONTINUOUS
10
74.9598
20
-79.99
11
74.9505
21
-79.9786
0
LINE
8
BLACK
6
CONTINUOUS
10
74.9505
20
-79.9786
11
74.9436
21
-79.9656
0
LINE
8
BLACK
6
CONTINUOUS
10
74.9436
20
-79.9656
11
74.9393
21
-79.9515
0
LINE
8
BLACK
6
CONTINUOUS
10
74.9393
20
-79.9515
11
74.9378
21
-79.9369
0
LINE
8
BLACK
6
CONTINUOUS
10
74.9378
20
-79.9369
11
74.9393
21
-79.9223
0
LINE
8
BLACK
6
CONTINUOUS
10
74.9393
20
-79.9223
11
74.9436
21
-79.9082
0
LINE
8
BLACK
6
CONTINUOUS
10
74.9436
20
-79.9082
11
74.9505
21
-79.8952
0
LINE
8
BLACK
6
CONTINUOUS
10
74.9505
20
-79.8952
11
74.9598
21
-79.8839
0
LINE
8
BLACK
6
CONTINUOUS
10
74.9598
20
-79.8839
11
75.0659
21
-79.7778
0
LINE
8
BLACK
6
CONTINUOUS
10
75.0659
20
-79.7778
11
75.0772
21
-79.7685
0
LINE
8
BLACK
6
CONTINUOUS
10
75.0772
20
-79.7685
11
75.0902
21
-79.7616
0
LINE
8
BLACK
6
CONTINUOUS
10
75.0902
20
-79.7616
11
75.1043
21
-79.7573
0
LINE
8
BLACK
6
CONTINUOUS
10
75.1043
20
-79.7573
11
75.1189
21
-79.7559
0
LINE
8
BLACK
6
CONTINUOUS
10
75.1189
20
-79.7559
11
75.1335
21
-79.7573
0
LINE
8
BLACK
6
CONTINUOUS
10
60.1335
20
-79.7573
11
60.1476
21
-79.7616
0
LINE
8
BLACK
6
CONTINUOUS
10
60.1476
20
-79.7616
11
60.1606
21
-79.7685
0
LINE
8
BLACK
6
CONTINUOUS
10
60.1606
20
-79.7685
11
60.1719
21
-79.7778
0
LINE
8
BLACK
6
CONTINUOUS
10
60.1719
20
-79.7778
11
61.1088
21
-80.7147
0
LINE
8
BLACK
6
CONTINUOUS
10
61.1088
20
-80.7147
11
61.1182
21
-80.7261
0
LINE
8
BLACK
6
CONTINUOUS
10
61.1182
20
-80.7261
11
61.1251
21
-80.7391
0
LINE
8
BLACK
6
CONTINUOUS
10
61.1251
20
-80.7391
11
61.1294
21
-80.7531
0
LINE
8
BLACK
6
CONTINUOUS
10
61.1294
20
-80.7531
11
61.1308
21
-80.7678
0
LINE
8
BLACK
6
CONTINUOUS
10
61.1308
20
-80.7678
11
61.1294
21
-80.7824
0
LINE
8
BLACK
6
CONTINUOUS
10
61.1294
20
-80.7824
11
61.1251
21
-80.7965
0
LINE
8
BLACK
6
CONTINUOUS
10
61.1251
20
-80.7965
11
61.1182
21
-80.8094
0
LINE
8
BLACK
6
CONTINUOUS
10
61.1182
20
-80.8094
11
61.1088
21
-80.8208
0
LINE
8
BLACK
6
CONTINUOUS
10
61.1088
20
-80.8208
11
61.0028
21
-80.9269
0
LINE
8
BLACK
6
CONTINUOUS
10
61.0028
20
-80.9269
11
60.9914
21
-80.9362
0
LINE
8
BLACK
6
CONTINUOUS
10
60.9914
20
-80.9362
11
60.9784
21
-80.9431
0
LINE
8
BLACK
6
CONTINUOUS
10
60.9784
20
-80.9431
11
60.9644
21
-80.9474
0
LINE
8
BLACK
6
CONTINUOUS
10
60.9644
20
-80.9474
11
60.9497
21
-80.9488
0
LINE
8
BLACK
6
CONTINUOUS
10
60.9497
20
-80.9488
11
60.9351
21
-80.9474
0
LINE
8
BLACK
6
CONTINUOUS
10
60.9351
20
-80.9474
11
60.921
21
-80.9431
0
LINE
8
BLACK
6
CONTINUOUS
10
60.921
20
-80.9431
11
60.9081
21
-80.9362
0
LINE
8
BLACK
6
CONTINUOUS
10
60.9081
20
-80.9362
11
60.8967
21
-80.9269
0
LINE
8
BLACK
6
CONTINUOUS
10
60.8967
20
-80.9269
11
59.9598
21
-79.99
0
LINE
8
BLACK
6
CONTINUOUS
10
59.9598
20
-79.99
11
59.9505
21
-79.9786
0
LINE
8
BLACK
6
CONTINUOUS
10
59.9505
20
-79.9786
11
59.9435
21
-79.9656
0
LINE
8
BLACK
6
CONTINUOUS
10
59.9435
20
-79.9656
11
59.9393
21
-79.9515
0
LINE
8
BLACK
6
CONTINUOUS
10
59.9393
20
-79.9515
11
59.9378
21
-79.9369
0
LINE
8
BLACK
6
CONTINUOUS
10
59.9378
20
-79.9369
11
59.9393
21
-79.9223
0
LINE
8
BLACK
6
CONTINUOUS
10
59.9393
20
-79.9223
11
59.9435
21
-79.9082
0
LINE
8
BLACK
6
CONTINUOUS
10
59.9435
20
-79.9082
11
59.9505
21
-79.8952
0
LINE
8
BLACK
6
CONTINUOUS
10
59.9505
20
-79.8952
11
59.9598
21
-79.8839
0
LINE
8
BLACK
6
CONTINUOUS
10
59.9598
20
-79.8839
11
60.0659
21
-79.7778
0
LINE
8
BLACK
6
CONTINUOUS
10
60.0659
20
-79.7778
11
60.0772
21
-79.7685
0
LINE
8
BLACK
6
CONTINUOUS
10
60.0772
20
-79.7685
11
60.0902
21
-79.7616
0
LINE
8
BLACK
6
CONTINUOUS
10
60.0902
20
-79.7616
11
60.1043
21
-79.7573
0
LINE
8
BLACK
6
CONTINUOUS
10
60.1043
20
-79.7573
11
60.1189
21
-79.7559
0
LINE
8
BLACK
6
CONTINUOUS
10
60.1189
20
-79.7559
11
60.1335
21
-79.7573
0
LINE
8
BLACK
6
CONTINUOUS
10
51.8957
20
-79.7573
11
51.9098
21
-79.7616
0
LINE
8
BLACK
6
CONTINUOUS
10
51.9098
20
-79.7616
11
51.9228
21
-79.7685
0
LINE
8
BLACK
6
CONTINUOUS
10
51.9228
20
-79.7685
11
51.9341
21
-79.7778
0
LINE
8
BLACK
6
CONTINUOUS
10
51.9341
20
-79.7778
11
52.0402
21
-79.8839
0
LINE
8
BLACK
6
CONTINUOUS
10
52.0402
20
-79.8839
11
52.0495
21
-79.8952
0
LINE
8
BLACK
6
CONTINUOUS
10
52.0495
20
-79.8952
11
52.0565
21
-79.9082
0
LINE
8
BLACK
6
CONTINUOUS
10
52.0565
20
-79.9082
11
52.0607
21
-79.9223
0
LINE
8
BLACK
6
CONTINUOUS
10
52.0607
20
-79.9223
11
52.0622
21
-79.9369
0
LINE
8
BLACK
6
CONTINUOUS
10
52.0622
20
-79.9369
11
52.0607
21
-79.9515
0
LINE
8
BLACK
6
CONTINUOUS
10
52.0607
20
-79.9515
11
52.0565
21
-79.9656
0
LINE
8
BLACK
6
CONTINUOUS
10
52.0565
20
-79.9656
11
52.0495
21
-79.9786
0
LINE
8
BLACK
6
CONTINUOUS
10
52.0495
20
-79.9786
11
52.0402
21
-79.99
0
LINE
8
BLACK
6
CONTINUOUS
10
52.0402
20
-79.99
11
51.1033
21
-80.9269
0
LINE
8
BLACK
6
CONTINUOUS
10
51.1033
20
-80.9269
11
51.0919
21
-80.9362
0
LINE
8
BLACK
6
CONTINUOUS
10
51.0919
20
-80.9362
11
51.079
21
-80.9431
0
LINE
8
BLACK
6
CONTINUOUS
10
51.079
20
-80.9431
11
51.0649
21
-80.9474
0
LINE
8
BLACK
6
CONTINUOUS
10
51.0649
20
-80.9474
11
51.0503
21
-80.9488
0
LINE
8
BLACK
6
CONTINUOUS
10
51.0503
20
-80.9488
11
51.0356
21
-80.9474
0
LINE
8
BLACK
6
CONTINUOUS
10
51.0356
20
-80.9474
11
51.0216
21
-80.9431
0
LINE
8
BLACK
6
CONTINUOUS
10
51.0216
20
-80.9431
11
51.0086
21
-80.9362
0
LINE
8
BLACK
6
CONTINUOUS
10
51.0086
20
-80.9362
11
50.9972
21
-80.9269
0
LINE
8
BLACK
6
CONTINUOUS
10
50.9972
20
-80.9269
11
50.8912
21
-80.8208
0
LINE
8
BLACK
6
CONTINUOUS
10
50.8912
20
-80.8208
11
50.8818
21
-80.8094
0
LINE
8
BLACK
6
CONTINUOUS
10
50.8818
20
-80.8094
11
50.8749
21
-80.7965
0
LINE
8
BLACK
6
CONTINUOUS
10
50.8749
20
-80.7965
11
50.8706
21
-80.7824
0
LINE
8
BLACK
6
CONTINUOUS
10
50.8706
20
-80.7824
11
50.8692
21
-80.7678
0
LINE
8
BLACK
6
CONTINUOUS
10
50.8692
20
-80.7678
11
50.8706
21
-80.7531
0
LINE
8
BLACK
6
CONTINUOUS
10
50.8706
20
-80.7531
11
50.8749
21
-80.7391
0
LINE
8
BLACK
6
CONTINUOUS
10
50.8749
20
-80.7391
11
50.8818
21
-80.7261
0
LINE
8
BLACK
6
CONTINUOUS
10
50.8818
20
-80.7261
11
50.8912
21
-80.7147
0
LINE
8
BLACK
6
CONTINUOUS
10
50.8912
20
-80.7147
11
51.8281
21
-79.7778
0
LINE
8
BLACK
6
CONTINUOUS
10
51.8281
20
-79.7778
11
51.8394
21
-79.7685
0
LINE
8
BLACK
6
CONTINUOUS
10
51.8394
20
-79.7685
11
51.8524
21
-79.7616
0
LINE
8
BLACK
6
CONTINUOUS
10
51.8524
20
-79.7616
11
51.8665
21
-79.7573
0
LINE
8
BLACK
6
CONTINUOUS
10
51.8665
20
-79.7573
11
51.8811
21
-79.7559
0
LINE
8
BLACK
6
CONTINUOUS
10
51.8811
20
-79.7559
11
51.8957
21
-79.7573
0
LINE
8
BLACK
6
CONTINUOUS
10
66.8958
20
-79.7573
11
66.9098
21
-79.7616
0
LINE
8
BLACK
6
CONTINUOUS
10
66.9098
20
-79.7616
11
66.9228
21
-79.7685
0
LINE
8
BLACK
6
CONTINUOUS
10
66.9228
20
-79.7685
11
66.9342
21
-79.7778
0
LINE
8
BLACK
6
CONTINUOUS
10
66.9342
20
-79.7778
11
67.0402
21
-79.8839
0
LINE
8
BLACK
6
CONTINUOUS
10
67.0402
20
-79.8839
11
67.0495
21
-79.8952
0
LINE
8
BLACK
6
CONTINUOUS
10
67.0495
20
-79.8952
11
67.0565
21
-79.9082
0
LINE
8
BLACK
6
CONTINUOUS
10
67.0565
20
-79.9082
11
67.0607
21
-79.9223
0
LINE
8
BLACK
6
CONTINUOUS
10
67.0607
20
-79.9223
11
67.0622
21
-79.9369
0
LINE
8
BLACK
6
CONTINUOUS
10
67.0622
20
-79.9369
11
67.0607
21
-79.9515
0
LINE
8
BLACK
6
CONTINUOUS
10
67.0607
20
-79.9515
11
67.0565
21
-79.9656
0
LINE
8
BLACK
6
CONTINUOUS
10
67.0565
20
-79.9656
11
67.0495
21
-79.9786
0
LINE
8
BLACK
6
CONTINUOUS
10
67.0495
20
-79.9786
11
67.0402
21
-79.99
0
LINE
8
BLACK
6
CONTINUOUS
10
67.0402
20
-79.99
11
66.1033
21
-80.9269
0
LINE
8
BLACK
6
CONTINUOUS
10
66.1033
20
-80.9269
11
66.0919
21
-80.9362
0
LINE
8
BLACK
6
CONTINUOUS
10
66.0919
20
-80.9362
11
66.079
21
-80.9431
0
LINE
8
BLACK
6
CONTINUOUS
10
66.079
20
-80.9431
11
66.0649
21
-80.9474
0
LINE
8
BLACK
6
CONTINUOUS
10
66.0649
20
-80.9474
11
66.0503
21
-80.9488
0
LINE
8
BLACK
6
CONTINUOUS
10
66.0503
20
-80.9488
11
66.0356
21
-80.9474
0
LINE
8
BLACK
6
CONTINUOUS
10
66.0356
20
-80.9474
11
66.0216
21
-80.9431
0
LINE
8
BLACK
6
CONTINUOUS
10
66.0216
20
-80.9431
11
66.0086
21
-80.9362
0
LINE
8
BLACK
6
CONTINUOUS
10
66.0086
20
-80.9362
11
65.9972
21
-80.9269
0
LINE
8
BLACK
6
CONTINUOUS
10
65.9972
20
-80.9269
11
65.8912
21
-80.8208
0
LINE
8
BLACK
6
CONTINUOUS
10
65.8912
20
-80.8208
11
65.8818
21
-80.8094
0
LINE
8
BLACK
6
CONTINUOUS
10
65.8818
20
-80.8094
11
65.8749
21
-80.7965
0
LINE
8
BLACK
6
CONTINUOUS
10
65.8749
20
-80.7965
11
65.8706
21
-80.7824
0
LINE
8
BLACK
6
CONTINUOUS
10
65.8706
20
-80.7824
11
65.8692
21
-80.7678
0
LINE
8
BLACK
6
CONTINUOUS
10
65.8692
20
-80.7678
11
65.8706
21
-80.7531
0
LINE
8
BLACK
6
CONTINUOUS
10
65.8706
20
-80.7531
11
65.8749
21
-80.7391
0
LINE
8
BLACK
6
CONTINUOUS
10
65.8749
20
-80.7391
11
65.8818
21
-80.7261
0
LINE
8
BLACK
6
CONTINUOUS
10
65.8818
20
-80.7261
11
65.8912
21
-80.7147
0
LINE
8
BLACK
6
CONTINUOUS
10
65.8912
20
-80.7147
11
66.8281
21
-79.7778
0
LINE
8
BLACK
6
CONTINUOUS
10
66.8281
20
-79.7778
11
66.8395
21
-79.7685
0
LINE
8
BLACK
6
CONTINUOUS
10
66.8395
20
-79.7685
11
66.8524
21
-79.7616
0
LINE
8
BLACK
6
CONTINUOUS
10
66.8524
20
-79.7616
11
66.8665
21
-79.7573
0
LINE
8
BLACK
6
CONTINUOUS
10
66.8665
20
-79.7573
11
66.8811
21
-79.7559
0
LINE
8
BLACK
6
CONTINUOUS
10
66.8811
20
-79.7559
11
66.8958
21
-79.7573
0
LINE
8
BLACK
6
CONTINUOUS
10
60.4871
20
-79.4037
11
60.5012
21
-79.408
0
LINE
8
BLACK
6
CONTINUOUS
10
60.5012
20
-79.408
11
60.5141
21
-79.4149
0
LINE
8
BLACK
6
CONTINUOUS
10
60.5141
20
-79.4149
11
60.5255
21
-79.4243
0
LINE
8
BLACK
6
CONTINUOUS
10
60.5255
20
-79.4243
11
61.4624
21
-80.3612
0
LINE
8
BLACK
6
CONTINUOUS
10
61.4624
20
-80.3612
11
61.4717
21
-80.3725
0
LINE
8
BLACK
6
CONTINUOUS
10
61.4717
20
-80.3725
11
61.4787
21
-80.3855
0
LINE
8
BLACK
6
CONTINUOUS
10
61.4787
20
-80.3855
11
61.4829
21
-80.3996
0
LINE
8
BLACK
6
CONTINUOUS
10
61.4829
20
-80.3996
11
61.4844
21
-80.4142
0
LINE
8
BLACK
6
CONTINUOUS
10
61.4844
20
-80.4142
11
61.4829
21
-80.4288
0
LINE
8
BLACK
6
CONTINUOUS
10
61.4829
20
-80.4288
11
61.4787
21
-80.4429
0
LINE
8
BLACK
6
CONTINUOUS
10
61.4787
20
-80.4429
11
61.4717
21
-80.4559
0
LINE
8
BLACK
6
CONTINUOUS
10
61.4717
20
-80.4559
11
61.4624
21
-80.4672
0
LINE
8
BLACK
6
CONTINUOUS
10
61.4624
20
-80.4672
11
61.3563
21
-80.5733
0
LINE
8
BLACK
6
CONTINUOUS
10
61.3563
20
-80.5733
11
61.345
21
-80.5826
0
LINE
8
BLACK
6
CONTINUOUS
10
61.345
20
-80.5826
11
61.332
21
-80.5896
0
LINE
8
BLACK
6
CONTINUOUS
10
61.332
20
-80.5896
11
61.3179
21
-80.5938
0
LINE
8
BLACK
6
CONTINUOUS
10
61.3179
20
-80.5938
11
61.3033
21
-80.5953
0
LINE
8
BLACK
6
CONTINUOUS
10
61.3033
20
-80.5953
11
61.2887
21
-80.5938
0
LINE
8
BLACK
6
CONTINUOUS
10
61.2887
20
-80.5938
11
61.2746
21
-80.5896
0
LINE
8
BLACK
6
CONTINUOUS
10
61.2746
20
-80.5896
11
61.2616
21
-80.5826
0
LINE
8
BLACK
6
CONTINUOUS
10
61.2616
20
-80.5826
11
61.2503
21
-80.5733
0
LINE
8
BLACK
6
CONTINUOUS
10
61.2503
20
-80.5733
11
60.3134
21
-79.6364
0
LINE
8
BLACK
6
CONTINUOUS
10
60.3134
20
-79.6364
11
60.304
21
-79.625
0
LINE
8
BLACK
6
CONTINUOUS
10
60.304
20
-79.625
11
60.2971
21
-79.6121
0
LINE
8
BLACK
6
CONTINUOUS
10
60.2971
20
-79.6121
11
60.2928
21
-79.598
0
LINE
8
BLACK
6
CONTINUOUS
10
60.2928
20
-79.598
11
60.2914
21
-79.5834
0
LINE
8
BLACK
6
CONTINUOUS
10
60.2914
20
-79.5834
11
60.2928
21
-79.5687
0
LINE
8
BLACK
6
CONTINUOUS
10
60.2928
20
-79.5687
11
60.2971
21
-79.5547
0
LINE
8
BLACK
6
CONTINUOUS
10
60.2971
20
-79.5547
11
60.304
21
-79.5417
0
LINE
8
BLACK
6
CONTINUOUS
10
60.304
20
-79.5417
11
60.3134
21
-79.5303
0
LINE
8
BLACK
6
CONTINUOUS
10
60.3134
20
-79.5303
11
60.4194
21
-79.4243
0
LINE
8
BLACK
6
CONTINUOUS
10
60.4194
20
-79.4243
11
60.4308
21
-79.4149
0
LINE
8
BLACK
6
CONTINUOUS
10
60.4308
20
-79.4149
11
60.4438
21
-79.408
0
LINE
8
BLACK
6
CONTINUOUS
10
60.4438
20
-79.408
11
60.4578
21
-79.4037
0
LINE
8
BLACK
6
CONTINUOUS
10
60.4578
20
-79.4037
11
60.4725
21
-79.4023
0
LINE
8
BLACK
6
CONTINUOUS
10
60.4725
20
-79.4023
11
60.4871
21
-79.4037
0
LINE
8
BLACK
6
CONTINUOUS
10
51.5422
20
-79.4037
11
51.5563
21
-79.408
0
LINE
8
BLACK
6
CONTINUOUS
10
51.5563
20
-79.408
11
51.5692
21
-79.4149
0
LINE
8
BLACK
6
CONTINUOUS
10
51.5692
20
-79.4149
11
51.5806
21
-79.4243
0
LINE
8
BLACK
6
CONTINUOUS
10
51.5806
20
-79.4243
11
51.6866
21
-79.5303
0
LINE
8
BLACK
6
CONTINUOUS
10
51.6866
20
-79.5303
11
51.696
21
-79.5417
0
LINE
8
BLACK
6
CONTINUOUS
10
51.696
20
-79.5417
11
51.7029
21
-79.5547
0
LINE
8
BLACK
6
CONTINUOUS
10
51.7029
20
-79.5547
11
51.7072
21
-79.5687
0
LINE
8
BLACK
6
CONTINUOUS
10
51.7072
20
-79.5687
11
51.7086
21
-79.5834
0
LINE
8
BLACK
6
CONTINUOUS
10
51.7086
20
-79.5834
11
51.7072
21
-79.598
0
LINE
8
BLACK
6
CONTINUOUS
10
51.7072
20
-79.598
11
51.7029
21
-79.6121
0
LINE
8
BLACK
6
CONTINUOUS
10
51.7029
20
-79.6121
11
51.696
21
-79.625
0
LINE
8
BLACK
6
CONTINUOUS
10
51.696
20
-79.625
11
51.6866
21
-79.6364
0
LINE
8
BLACK
6
CONTINUOUS
10
51.6866
20
-79.6364
11
50.7497
21
-80.5733
0
LINE
8
BLACK
6
CONTINUOUS
10
50.7497
20
-80.5733
11
50.7384
21
-80.5826
0
LINE
8
BLACK
6
CONTINUOUS
10
50.7384
20
-80.5826
11
50.7254
21
-80.5896
0
LINE
8
BLACK
6
CONTINUOUS
10
50.7254
20
-80.5896
11
50.7113
21
-80.5938
0
LINE
8
BLACK
6
CONTINUOUS
10
50.7113
20
-80.5938
11
50.6967
21
-80.5953
0
LINE
8
BLACK
6
CONTINUOUS
10
50.6967
20
-80.5953
11
50.6821
21
-80.5938
0
LINE
8
BLACK
6
CONTINUOUS
10
50.6821
20
-80.5938
11
50.668
21
-80.5896
0
LINE
8
BLACK
6
CONTINUOUS
10
50.668
20
-80.5896
11
50.655
21
-80.5826
0
LINE
8
BLACK
6
CONTINUOUS
10
50.655
20
-80.5826
11
50.6437
21
-80.5733
0
LINE
8
BLACK
6
CONTINUOUS
10
50.6437
20
-80.5733
11
50.5376
21
-80.4672
0
LINE
8
BLACK
6
CONTINUOUS
10
50.5376
20
-80.4672
11
50.5283
21
-80.4559
0
LINE
8
BLACK
6
CONTINUOUS
10
50.5283
20
-80.4559
11
50.5213
21
-80.4429
0
LINE
8
BLACK
6
CONTINUOUS
10
50.5213
20
-80.4429
11
50.5171
21
-80.4288
0
LINE
8
BLACK
6
CONTINUOUS
10
50.5171
20
-80.4288
11
50.5156
21
-80.4142
0
LINE
8
BLACK
6
CONTINUOUS
10
50.5156
20
-80.4142
11
50.5171
21
-80.3996
0
LINE
8
BLACK
6
CONTINUOUS
10
50.5171
20
-80.3996
11
50.5213
21
-80.3855
0
LINE
8
BLACK
6
CONTINUOUS
10
50.5213
20
-80.3855
11
50.5283
21
-80.3725
0
LINE
8
BLACK
6
CONTINUOUS
10
50.5283
20
-80.3725
11
50.5376
21
-80.3612
0
LINE
8
BLACK
6
CONTINUOUS
10
50.5376
20
-80.3612
11
51.4745
21
-79.4243
0
LINE
8
BLACK
6
CONTINUOUS
10
51.4745
20
-79.4243
11
51.4859
21
-79.4149
0
LINE
8
BLACK
6
CONTINUOUS
10
51.4859
20
-79.4149
11
51.4988
21
-79.408
0
LINE
8
BLACK
6
CONTINUOUS
10
51.4988
20
-79.408
11
51.5129
21
-79.4037
0
LINE
8
BLACK
6
CONTINUOUS
10
51.5129
20
-79.4037
11
51.5275
21
-79.4023
0
LINE
8
BLACK
6
CONTINUOUS
10
51.5275
20
-79.4023
11
51.5422
21
-79.4037
0
LINE
8
BLACK
6
CONTINUOUS
10
66.5422
20
-79.4037
11
66.5563
21
-79.408
0
LINE
8
BLACK
6
CONTINUOUS
10
66.5563
20
-79.408
11
66.5692
21
-79.4149
0
LINE
8
BLACK
6
CONTINUOUS
10
66.5692
20
-79.4149
11
66.5806
21
-79.4243
0
LINE
8
BLACK
6
CONTINUOUS
10
66.5806
20
-79.4243
11
66.6867
21
-79.5303
0
LINE
8
BLACK
6
CONTINUOUS
10
66.6867
20
-79.5303
11
66.696
21
-79.5417
0
LINE
8
BLACK
6
CONTINUOUS
10
66.696
20
-79.5417
11
66.7029
21
-79.5547
0
LINE
8
BLACK
6
CONTINUOUS
10
66.7029
20
-79.5547
11
66.7072
21
-79.5687
0
LINE
8
BLACK
6
CONTINUOUS
10
66.7072
20
-79.5687
11
66.7086
21
-79.5834
0
LINE
8
BLACK
6
CONTINUOUS
10
66.7086
20
-79.5834
11
66.7072
21
-79.598
0
LINE
8
BLACK
6
CONTINUOUS
10
66.7072
20
-79.598
11
66.7029
21
-79.6121
0
LINE
8
BLACK
6
CONTINUOUS
10
66.7029
20
-79.6121
11
66.696
21
-79.625
0
LINE
8
BLACK
6
CONTINUOUS
10
66.696
20
-79.625
11
66.6867
21
-79.6364
0
LINE
8
BLACK
6
CONTINUOUS
10
66.6867
20
-79.6364
11
65.7497
21
-80.5733
0
LINE
8
BLACK
6
CONTINUOUS
10
65.7497
20
-80.5733
11
65.7384
21
-80.5826
0
LINE
8
BLACK
6
CONTINUOUS
10
65.7384
20
-80.5826
11
65.7254
21
-80.5896
0
LINE
8
BLACK
6
CONTINUOUS
10
65.7254
20
-80.5896
11
65.7113
21
-80.5938
0
LINE
8
BLACK
6
CONTINUOUS
10
65.7113
20
-80.5938
11
65.6967
21
-80.5953
0
LINE
8
BLACK
6
CONTINUOUS
10
65.6967
20
-80.5953
11
65.6821
21
-80.5938
0
LINE
8
BLACK
6
CONTINUOUS
10
65.6821
20
-80.5938
11
65.668
21
-80.5896
0
LINE
8
BLACK
6
CONTINUOUS
10
65.668
20
-80.5896
11
65.655
21
-80.5826
0
LINE
8
BLACK
6
CONTINUOUS
10
65.655
20
-80.5826
11
65.6437
21
-80.5733
0
LINE
8
BLACK
6
CONTINUOUS
10
65.6437
20
-80.5733
11
65.5376
21
-80.4672
0
LINE
8
BLACK
6
CONTINUOUS
10
65.5376
20
-80.4672
11
65.5283
21
-80.4559
0
LINE
8
BLACK
6
CONTINUOUS
10
65.5283
20
-80.4559
11
65.5214
21
-80.4429
0
LINE
8
BLACK
6
CONTINUOUS
10
65.5214
20
-80.4429
11
65.5171
21
-80.4288
0
LINE
8
BLACK
6
CONTINUOUS
10
65.5171
20
-80.4288
11
65.5157
21
-80.4142
0
LINE
8
BLACK
6
CONTINUOUS
10
65.5157
20
-80.4142
11
65.5171
21
-80.3996
0
LINE
8
BLACK
6
CONTINUOUS
10
65.5171
20
-80.3996
11
65.5214
21
-80.3855
0
LINE
8
BLACK
6
CONTINUOUS
10
65.5214
20
-80.3855
11
65.5283
21
-80.3725
0
LINE
8
BLACK
6
CONTINUOUS
10
65.5283
20
-80.3725
11
65.5376
21
-80.3612
0
LINE
8
BLACK
6
CONTINUOUS
10
65.5376
20
-80.3612
11
66.4745
21
-79.4243
0
LINE
8
BLACK
6
CONTINUOUS
10
66.4745
20
-79.4243
11
66.4859
21
-79.4149
0
LINE
8
BLACK
6
CONTINUOUS
10
66.4859
20
-79.4149
11
66.4989
21
-79.408
0
LINE
8
BLACK
6
CONTINUOUS
10
66.4989
20
-79.408
11
66.5129
21
-79.4037
0
LINE
8
BLACK
6
CONTINUOUS
10
66.5129
20
-79.4037
11
66.5276
21
-79.4023
0
LINE
8
BLACK
6
CONTINUOUS
10
66.5276
20
-79.4023
11
66.5422
21
-79.4037
0
LINE
8
BLACK
6
CONTINUOUS
10
75.4871
20
-79.4037
11
75.5012
21
-79.408
0
LINE
8
BLACK
6
CONTINUOUS
10
75.5012
20
-79.408
11
75.5141
21
-79.4149
0
LINE
8
BLACK
6
CONTINUOUS
10
75.5141
20
-79.4149
11
75.5255
21
-79.4243
0
LINE
8
BLACK
6
CONTINUOUS
10
75.5255
20
-79.4243
11
76.4624
21
-80.3612
0
LINE
8
BLACK
6
CONTINUOUS
10
76.4624
20
-80.3612
11
76.4717
21
-80.3725
0
LINE
8
BLACK
6
CONTINUOUS
10
76.4717
20
-80.3725
11
76.4787
21
-80.3855
0
LINE
8
BLACK
6
CONTINUOUS
10
76.4787
20
-80.3855
11
76.4829
21
-80.3996
0
LINE
8
BLACK
6
CONTINUOUS
10
76.4829
20
-80.3996
11
76.4844
21
-80.4142
0
LINE
8
BLACK
6
CONTINUOUS
10
76.4844
20
-80.4142
11
76.4829
21
-80.4288
0
LINE
8
BLACK
6
CONTINUOUS
10
76.4829
20
-80.4288
11
76.4787
21
-80.4429
0
LINE
8
BLACK
6
CONTINUOUS
10
76.4787
20
-80.4429
11
76.4717
21
-80.4559
0
LINE
8
BLACK
6
CONTINUOUS
10
76.4717
20
-80.4559
11
76.4624
21
-80.4672
0
LINE
8
BLACK
6
CONTINUOUS
10
76.4624
20
-80.4672
11
76.3564
21
-80.5733
0
LINE
8
BLACK
6
CONTINUOUS
10
76.3564
20
-80.5733
11
76.345
21
-80.5826
0
LINE
8
BLACK
6
CONTINUOUS
10
76.345
20
-80.5826
11
76.332
21
-80.5896
0
LINE
8
BLACK
6
CONTINUOUS
10
76.332
20
-80.5896
11
76.318
21
-80.5938
0
LINE
8
BLACK
6
CONTINUOUS
10
76.318
20
-80.5938
11
76.3033
21
-80.5953
0
LINE
8
BLACK
6
CONTINUOUS
10
76.3033
20
-80.5953
11
76.2887
21
-80.5938
0
LINE
8
BLACK
6
CONTINUOUS
10
76.2887
20
-80.5938
11
76.2746
21
-80.5896
0
LINE
8
BLACK
6
CONTINUOUS
10
76.2746
20
-80.5896
11
76.2617
21
-80.5826
0
LINE
8
BLACK
6
CONTINUOUS
10
76.2617
20
-80.5826
11
76.2503
21
-80.5733
0
LINE
8
BLACK
6
CONTINUOUS
10
76.2503
20
-80.5733
11
75.3134
21
-79.6364
0
LINE
8
BLACK
6
CONTINUOUS
10
75.3134
20
-79.6364
11
75.304
21
-79.625
0
LINE
8
BLACK
6
CONTINUOUS
10
75.304
20
-79.625
11
75.2971
21
-79.6121
0
LINE
8
BLACK
6
CONTINUOUS
10
75.2971
20
-79.6121
11
75.2928
21
-79.598
0
LINE
8
BLACK
6
CONTINUOUS
10
75.2928
20
-79.598
11
75.2914
21
-79.5834
0
LINE
8
BLACK
6
CONTINUOUS
10
75.2914
20
-79.5834
11
75.2928
21
-79.5687
0
LINE
8
BLACK
6
CONTINUOUS
10
75.2928
20
-79.5687
11
75.2971
21
-79.5547
0
LINE
8
BLACK
6
CONTINUOUS
10
75.2971
20
-79.5547
11
75.304
21
-79.5417
0
LINE
8
BLACK
6
CONTINUOUS
10
75.304
20
-79.5417
11
75.3134
21
-79.5303
0
LINE
8
BLACK
6
CONTINUOUS
10
75.3134
20
-79.5303
11
75.4194
21
-79.4243
0
LINE
8
BLACK
6
CONTINUOUS
10
75.4194
20
-79.4243
11
75.4308
21
-79.4149
0
LINE
8
BLACK
6
CONTINUOUS
10
75.4308
20
-79.4149
11
75.4438
21
-79.408
0
LINE
8
BLACK
6
CONTINUOUS
10
75.4438
20
-79.408
11
75.4578
21
-79.4037
0
LINE
8
BLACK
6
CONTINUOUS
10
75.4578
20
-79.4037
11
75.4725
21
-79.4023
0
LINE
8
BLACK
6
CONTINUOUS
10
75.4725
20
-79.4023
11
75.4871
21
-79.4037
0
LINE
8
BLACK
6
CONTINUOUS
10
50.7113
20
-77.4062
11
50.7254
21
-77.4104
0
LINE
8
BLACK
6
CONTINUOUS
10
50.7254
20
-77.4104
11
50.7384
21
-77.4174
0
LINE
8
BLACK
6
CONTINUOUS
10
50.7384
20
-77.4174
11
50.7497
21
-77.4267
0
LINE
8
BLACK
6
CONTINUOUS
10
50.7497
20
-77.4267
11
51.6866
21
-78.3636
0
LINE
8
BLACK
6
CONTINUOUS
10
51.6866
20
-78.3636
11
51.696
21
-78.375
0
LINE
8
BLACK
6
CONTINUOUS
10
51.696
20
-78.375
11
51.7029
21
-78.3879
0
LINE
8
BLACK
6
CONTINUOUS
10
51.7029
20
-78.3879
11
51.7072
21
-78.402
0
LINE
8
BLACK
6
CONTINUOUS
10
51.7072
20
-78.402
11
51.7086
21
-78.4166
0
LINE
8
BLACK
6
CONTINUOUS
10
51.7086
20
-78.4166
11
51.7072
21
-78.4313
0
LINE
8
BLACK
6
CONTINUOUS
10
51.7072
20
-78.4313
11
51.7029
21
-78.4453
0
LINE
8
BLACK
6
CONTINUOUS
10
51.7029
20
-78.4453
11
51.696
21
-78.4583
0
LINE
8
BLACK
6
CONTINUOUS
10
51.696
20
-78.4583
11
51.6866
21
-78.4697
0
LINE
8
BLACK
6
CONTINUOUS
10
51.6866
20
-78.4697
11
51.5806
21
-78.5757
0
LINE
8
BLACK
6
CONTINUOUS
10
51.5806
20
-78.5757
11
51.5692
21
-78.5851
0
LINE
8
BLACK
6
CONTINUOUS
10
51.5692
20
-78.5851
11
51.5563
21
-78.592
0
LINE
8
BLACK
6
CONTINUOUS
10
51.5563
20
-78.592
11
51.5422
21
-78.5963
0
LINE
8
BLACK
6
CONTINUOUS
10
51.5422
20
-78.5963
11
51.5275
21
-78.5977
0
LINE
8
BLACK
6
CONTINUOUS
10
51.5275
20
-78.5977
11
51.5129
21
-78.5963
0
LINE
8
BLACK
6
CONTINUOUS
10
51.5129
20
-78.5963
11
51.4988
21
-78.592
0
LINE
8
BLACK
6
CONTINUOUS
10
51.4988
20
-78.592
11
51.4859
21
-78.5851
0
LINE
8
BLACK
6
CONTINUOUS
10
51.4859
20
-78.5851
11
51.4745
21
-78.5757
0
LINE
8
BLACK
6
CONTINUOUS
10
51.4745
20
-78.5757
11
50.5376
21
-77.6388
0
LINE
8
BLACK
6
CONTINUOUS
10
50.5376
20
-77.6388
11
50.5283
21
-77.6275
0
LINE
8
BLACK
6
CONTINUOUS
10
50.5283
20
-77.6275
11
50.5213
21
-77.6145
0
LINE
8
BLACK
6
CONTINUOUS
10
50.5213
20
-77.6145
11
50.5171
21
-77.6004
0
LINE
8
BLACK
6
CONTINUOUS
10
50.5171
20
-77.6004
11
50.5156
21
-77.5858
0
LINE
8
BLACK
6
CONTINUOUS
10
50.5156
20
-77.5858
11
50.5171
21
-77.5712
0
LINE
8
BLACK
6
CONTINUOUS
10
50.5171
20
-77.5712
11
50.5213
21
-77.5571
0
LINE
8
BLACK
6
CONTINUOUS
10
50.5213
20
-77.5571
11
50.5283
21
-77.5441
0
LINE
8
BLACK
6
CONTINUOUS
10
50.5283
20
-77.5441
11
50.5376
21
-77.5328
0
LINE
8
BLACK
6
CONTINUOUS
10
50.5376
20
-77.5328
11
50.6437
21
-77.4267
0
LINE
8
BLACK
6
CONTINUOUS
10
50.6437
20
-77.4267
11
50.655
21
-77.4174
0
LINE
8
BLACK
6
CONTINUOUS
10
50.655
20
-77.4174
11
50.668
21
-77.4104
0
LINE
8
BLACK
6
CONTINUOUS
10
50.668
20
-77.4104
11
50.6821
21
-77.4062
0
LINE
8
BLACK
6
CONTINUOUS
10
50.6821
20
-77.4062
11
50.6967
21
-77.4047
0
LINE
8
BLACK
6
CONTINUOUS
10
50.6967
20
-77.4047
11
50.7113
21
-77.4062
0
LINE
8
BLACK
6
CONTINUOUS
10
76.318
20
-77.4062
11
76.332
21
-77.4104
0
LINE
8
BLACK
6
CONTINUOUS
10
76.332
20
-77.4104
11
76.345
21
-77.4174
0
LINE
8
BLACK
6
CONTINUOUS
10
76.345
20
-77.4174
11
76.3564
21
-77.4267
0
LINE
8
BLACK
6
CONTINUOUS
10
76.3564
20
-77.4267
11
76.4624
21
-77.5328
0
LINE
8
BLACK
6
CONTINUOUS
10
76.4624
20
-77.5328
11
76.4717
21
-77.5441
0
LINE
8
BLACK
6
CONTINUOUS
10
76.4717
20
-77.5441
11
76.4787
21
-77.5571
0
LINE
8
BLACK
6
CONTINUOUS
10
76.4787
20
-77.5571
11
76.4829
21
-77.5712
0
LINE
8
BLACK
6
CONTINUOUS
10
76.4829
20
-77.5712
11
76.4844
21
-77.5858
0
LINE
8
BLACK
6
CONTINUOUS
10
76.4844
20
-77.5858
11
76.4829
21
-77.6004
0
LINE
8
BLACK
6
CONTINUOUS
10
76.4829
20
-77.6004
11
76.4787
21
-77.6145
0
LINE
8
BLACK
6
CONTINUOUS
10
76.4787
20
-77.6145
11
76.4717
21
-77.6275
0
LINE
8
BLACK
6
CONTINUOUS
10
76.4717
20
-77.6275
11
76.4624
21
-77.6388
0
LINE
8
BLACK
6
CONTINUOUS
10
76.4624
20
-77.6388
11
75.5255
21
-78.5757
0
LINE
8
BLACK
6
CONTINUOUS
10
75.5255
20
-78.5757
11
75.5141
21
-78.5851
0
LINE
8
BLACK
6
CONTINUOUS
10
75.5141
20
-78.5851
11
75.5012
21
-78.592
0
LINE
8
BLACK
6
CONTINUOUS
10
75.5012
20
-78.592
11
75.4871
21
-78.5963
0
LINE
8
BLACK
6
CONTINUOUS
10
75.4871
20
-78.5963
11
75.4725
21
-78.5977
0
LINE
8
BLACK
6
CONTINUOUS
10
75.4725
20
-78.5977
11
75.4578
21
-78.5963
0
LINE
8
BLACK
6
CONTINUOUS
10
75.4578
20
-78.5963
11
75.4438
21
-78.592
0
LINE
8
BLACK
6
CONTINUOUS
10
75.4438
20
-78.592
11
75.4308
21
-78.5851
0
LINE
8
BLACK
6
CONTINUOUS
10
75.4308
20
-78.5851
11
75.4194
21
-78.5757
0
LINE
8
BLACK
6
CONTINUOUS
10
75.4194
20
-78.5757
11
75.3134
21
-78.4697
0
LINE
8
BLACK
6
CONTINUOUS
10
75.3134
20
-78.4697
11
75.304
21
-78.4583
0
LINE
8
BLACK
6
CONTINUOUS
10
75.304
20
-78.4583
11
75.2971
21
-78.4453
0
LINE
8
BLACK
6
CONTINUOUS
10
75.2971
20
-78.4453
11
75.2928
21
-78.4313
0
LINE
8
BLACK
6
CONTINUOUS
10
75.2928
20
-78.4313
11
75.2914
21
-78.4166
0
LINE
8
BLACK
6
CONTINUOUS
10
75.2914
20
-78.4166
11
75.2928
21
-78.402
0
LINE
8
BLACK
6
CONTINUOUS
10
75.2928
20
-78.402
11
75.2971
21
-78.3879
0
LINE
8
BLACK
6
CONTINUOUS
10
75.2971
20
-78.3879
11
75.304
21
-78.375
0
LINE
8
BLACK
6
CONTINUOUS
10
75.304
20
-78.375
11
75.3134
21
-78.3636
0
LINE
8
BLACK
6
CONTINUOUS
10
75.3134
20
-78.3636
11
76.2503
21
-77.4267
0
LINE
8
BLACK
6
CONTINUOUS
10
76.2503
20
-77.4267
11
76.2617
21
-77.4174
0
LINE
8
BLACK
6
CONTINUOUS
10
76.2617
20
-77.4174
11
76.2746
21
-77.4104
0
LINE
8
BLACK
6
CONTINUOUS
10
76.2746
20
-77.4104
11
76.2887
21
-77.4062
0
LINE
8
BLACK
6
CONTINUOUS
10
76.2887
20
-77.4062
11
76.3033
21
-77.4047
0
LINE
8
BLACK
6
CONTINUOUS
10
76.3033
20
-77.4047
11
76.318
21
-77.4062
0
LINE
8
BLACK
6
CONTINUOUS
10
65.7113
20
-77.4062
11
65.7254
21
-77.4104
0
LINE
8
BLACK
6
CONTINUOUS
10
65.7254
20
-77.4104
11
65.7384
21
-77.4174
0
LINE
8
BLACK
6
CONTINUOUS
10
65.7384
20
-77.4174
11
65.7497
21
-77.4267
0
LINE
8
BLACK
6
CONTINUOUS
10
65.7497
20
-77.4267
11
66.6867
21
-78.3636
0
LINE
8
BLACK
6
CONTINUOUS
10
66.6867
20
-78.3636
11
66.696
21
-78.375
0
LINE
8
BLACK
6
CONTINUOUS
10
66.696
20
-78.375
11
66.7029
21
-78.3879
0
LINE
8
BLACK
6
CONTINUOUS
10
66.7029
20
-78.3879
11
66.7072
21
-78.402
0
LINE
8
BLACK
6
CONTINUOUS
10
66.7072
20
-78.402
11
66.7086
21
-78.4166
0
LINE
8
BLACK
6
CONTINUOUS
10
66.7086
20
-78.4166
11
66.7072
21
-78.4313
0
LINE
8
BLACK
6
CONTINUOUS
10
66.7072
20
-78.4313
11
66.7029
21
-78.4453
0
LINE
8
BLACK
6
CONTINUOUS
10
66.7029
20
-78.4453
11
66.696
21
-78.4583
0
LINE
8
BLACK
6
CONTINUOUS
10
66.696
20
-78.4583
11
66.6867
21
-78.4697
0
LINE
8
BLACK
6
CONTINUOUS
10
66.6867
20
-78.4697
11
66.5806
21
-78.5757
0
LINE
8
BLACK
6
CONTINUOUS
10
66.5806
20
-78.5757
11
66.5692
21
-78.5851
0
LINE
8
BLACK
6
CONTINUOUS
10
66.5692
20
-78.5851
11
66.5563
21
-78.592
0
LINE
8
BLACK
6
CONTINUOUS
10
66.5563
20
-78.592
11
66.5422
21
-78.5963
0
LINE
8
BLACK
6
CONTINUOUS
10
66.5422
20
-78.5963
11
66.5276
21
-78.5977
0
LINE
8
BLACK
6
CONTINUOUS
10
66.5276
20
-78.5977
11
66.5129
21
-78.5963
0
LINE
8
BLACK
6
CONTINUOUS
10
66.5129
20
-78.5963
11
66.4989
21
-78.592
0
LINE
8
BLACK
6
CONTINUOUS
10
66.4989
20
-78.592
11
66.4859
21
-78.5851
0
LINE
8
BLACK
6
CONTINUOUS
10
66.4859
20
-78.5851
11
66.4745
21
-78.5757
0
LINE
8
BLACK
6
CONTINUOUS
10
66.4745
20
-78.5757
11
65.5376
21
-77.6388
0
LINE
8
BLACK
6
CONTINUOUS
10
65.5376
20
-77.6388
11
65.5283
21
-77.6275
0
LINE
8
BLACK
6
CONTINUOUS
10
65.5283
20
-77.6275
11
65.5214
21
-77.6145
0
LINE
8
BLACK
6
CONTINUOUS
10
65.5214
20
-77.6145
11
65.5171
21
-77.6004
0
LINE
8
BLACK
6
CONTINUOUS
10
65.5171
20
-77.6004
11
65.5157
21
-77.5858
0
LINE
8
BLACK
6
CONTINUOUS
10
65.5157
20
-77.5858
11
65.5171
21
-77.5712
0
LINE
8
BLACK
6
CONTINUOUS
10
65.5171
20
-77.5712
11
65.5214
21
-77.5571
0
LINE
8
BLACK
6
CONTINUOUS
10
65.5214
20
-77.5571
11
65.5283
21
-77.5441
0
LINE
8
BLACK
6
CONTINUOUS
10
65.5283
20
-77.5441
11
65.5376
21
-77.5328
0
LINE
8
BLACK
6
CONTINUOUS
10
65.5376
20
-77.5328
11
65.6437
21
-77.4267
0
LINE
8
BLACK
6
CONTINUOUS
10
65.6437
20
-77.4267
11
65.655
21
-77.4174
0
LINE
8
BLACK
6
CONTINUOUS
10
65.655
20
-77.4174
11
65.668
21
-77.4104
0
LINE
8
BLACK
6
CONTINUOUS
10
65.668
20
-77.4104
11
65.6821
21
-77.4062
0
LINE
8
BLACK
6
CONTINUOUS
10
65.6821
20
-77.4062
11
65.6967
21
-77.4047
0
LINE
8
BLACK
6
CONTINUOUS
10
65.6967
20
-77.4047
11
65.7113
21
-77.4062
0
LINE
8
BLACK
6
CONTINUOUS
10
61.3179
20
-77.4062
11
61.332
21
-77.4104
0
LINE
8
BLACK
6
CONTINUOUS
10
61.332
20
-77.4104
11
61.345
21
-77.4174
0
LINE
8
BLACK
6
CONTINUOUS
10
61.345
20
-77.4174
11
61.3563
21
-77.4267
0
LINE
8
BLACK
6
CONTINUOUS
10
61.3563
20
-77.4267
11
61.4624
21
-77.5328
0
LINE
8
BLACK
6
CONTINUOUS
10
61.4624
20
-77.5328
11
61.4717
21
-77.5441
0
LINE
8
BLACK
6
CONTINUOUS
10
61.4717
20
-77.5441
11
61.4787
21
-77.5571
0
LINE
8
BLACK
6
CONTINUOUS
10
61.4787
20
-77.5571
11
61.4829
21
-77.5712
0
LINE
8
BLACK
6
CONTINUOUS
10
61.4829
20
-77.5712
11
61.4844
21
-77.5858
0
LINE
8
BLACK
6
CONTINUOUS
10
61.4844
20
-77.5858
11
61.4829
21
-77.6004
0
LINE
8
BLACK
6
CONTINUOUS
10
61.4829
20
-77.6004
11
61.4787
21
-77.6145
0
LINE
8
BLACK
6
CONTINUOUS
10
61.4787
20
-77.6145
11
61.4717
21
-77.6275
0
LINE
8
BLACK
6
CONTINUOUS
10
61.4717
20
-77.6275
11
61.4624
21
-77.6388
0
LINE
8
BLACK
6
CONTINUOUS
10
61.4624
20
-77.6388
11
60.5255
21
-78.5757
0
LINE
8
BLACK
6
CONTINUOUS
10
60.5255
20
-78.5757
11
60.5141
21
-78.5851
0
LINE
8
BLACK
6
CONTINUOUS
10
60.5141
20
-78.5851
11
60.5012
21
-78.592
0
LINE
8
BLACK
6
CONTINUOUS
10
60.5012
20
-78.592
11
60.4871
21
-78.5963
0
LINE
8
BLACK
6
CONTINUOUS
10
60.4871
20
-78.5963
11
60.4725
21
-78.5977
0
LINE
8
BLACK
6
CONTINUOUS
10
60.4725
20
-78.5977
11
60.4578
21
-78.5963
0
LINE
8
BLACK
6
CONTINUOUS
10
60.4578
20
-78.5963
11
60.4438
21
-78.592
0
LINE
8
BLACK
6
CONTINUOUS
10
60.4438
20
-78.592
11
60.4308
21
-78.5851
0
LINE
8
BLACK
6
CONTINUOUS
10
60.4308
20
-78.5851
11
60.4194
21
-78.5757
0
LINE
8
BLACK
6
CONTINUOUS
10
60.4194
20
-78.5757
11
60.3134
21
-78.4697
0
LINE
8
BLACK
6
CONTINUOUS
10
60.3134
20
-78.4697
11
60.304
21
-78.4583
0
LINE
8
BLACK
6
CONTINUOUS
10
60.304
20
-78.4583
11
60.2971
21
-78.4453
0
LINE
8
BLACK
6
CONTINUOUS
10
60.2971
20
-78.4453
11
60.2928
21
-78.4313
0
LINE
8
BLACK
6
CONTINUOUS
10
60.2928
20
-78.4313
11
60.2914
21
-78.4166
0
LINE
8
BLACK
6
CONTINUOUS
10
60.2914
20
-78.4166
11
60.2928
21
-78.402
0
LINE
8
BLACK
6
CONTINUOUS
10
60.2928
20
-78.402
11
60.2971
21
-78.3879
0
LINE
8
BLACK
6
CONTINUOUS
10
60.2971
20
-78.3879
11
60.304
21
-78.375
0
LINE
8
BLACK
6
CONTINUOUS
10
60.304
20
-78.375
11
60.3134
21
-78.3636
0
LINE
8
BLACK
6
CONTINUOUS
10
60.3134
20
-78.3636
11
61.2503
21
-77.4267
0
LINE
8
BLACK
6
CONTINUOUS
10
61.2503
20
-77.4267
11
61.2616
21
-77.4174
0
LINE
8
BLACK
6
CONTINUOUS
10
61.2616
20
-77.4174
11
61.2746
21
-77.4104
0
LINE
8
BLACK
6
CONTINUOUS
10
61.2746
20
-77.4104
11
61.2887
21
-77.4062
0
LINE
8
BLACK
6
CONTINUOUS
10
61.2887
20
-77.4062
11
61.3033
21
-77.4047
0
LINE
8
BLACK
6
CONTINUOUS
10
61.3033
20
-77.4047
11
61.3179
21
-77.4062
0
LINE
8
BLACK
6
CONTINUOUS
10
60.9644
20
-77.0526
11
60.9784
21
-77.0569
0
LINE
8
BLACK
6
CONTINUOUS
10
60.9784
20
-77.0569
11
60.9914
21
-77.0638
0
LINE
8
BLACK
6
CONTINUOUS
10
60.9914
20
-77.0638
11
61.0028
21
-77.0731
0
LINE
8
BLACK
6
CONTINUOUS
10
61.0028
20
-77.0731
11
61.1088
21
-77.1792
0
LINE
8
BLACK
6
CONTINUOUS
10
61.1088
20
-77.1792
11
61.1182
21
-77.1906
0
LINE
8
BLACK
6
CONTINUOUS
10
61.1182
20
-77.1906
11
61.1251
21
-77.2035
0
LINE
8
BLACK
6
CONTINUOUS
10
61.1251
20
-77.2035
11
61.1294
21
-77.2176
0
LINE
8
BLACK
6
CONTINUOUS
10
61.1294
20
-77.2176
11
61.1308
21
-77.2322
0
LINE
8
BLACK
6
CONTINUOUS
10
61.1308
20
-77.2322
11
61.1294
21
-77.2469
0
LINE
8
BLACK
6
CONTINUOUS
10
61.1294
20
-77.2469
11
61.1251
21
-77.2609
0
LINE
8
BLACK
6
CONTINUOUS
10
61.1251
20
-77.2609
11
61.1182
21
-77.2739
0
LINE
8
BLACK
6
CONTINUOUS
10
61.1182
20
-77.2739
11
61.1088
21
-77.2853
0
LINE
8
BLACK
6
CONTINUOUS
10
61.1088
20
-77.2853
11
60.1719
21
-78.2222
0
LINE
8
BLACK
6
CONTINUOUS
10
60.1719
20
-78.2222
11
60.1606
21
-78.2315
0
LINE
8
BLACK
6
CONTINUOUS
10
60.1606
20
-78.2315
11
60.1476
21
-78.2384
0
LINE
8
BLACK
6
CONTINUOUS
10
60.1476
20
-78.2384
11
60.1335
21
-78.2427
0
LINE
8
BLACK
6
CONTINUOUS
10
60.1335
20
-78.2427
11
60.1189
21
-78.2441
0
LINE
8
BLACK
6
CONTINUOUS
10
60.1189
20
-78.2441
11
60.1043
21
-78.2427
0
LINE
8
BLACK
6
CONTINUOUS
10
60.1043
20
-78.2427
11
60.0902
21
-78.2384
0
LINE
8
BLACK
6
CONTINUOUS
10
60.0902
20
-78.2384
11
60.0772
21
-78.2315
0
LINE
8
BLACK
6
CONTINUOUS
10
60.0772
20
-78.2315
11
60.0659
21
-78.2222
0
LINE
8
BLACK
6
CONTINUOUS
10
60.0659
20
-78.2222
11
59.9598
21
-78.1161
0
LINE
8
BLACK
6
CONTINUOUS
10
59.9598
20
-78.1161
11
59.9505
21
-78.1048
0
LINE
8
BLACK
6
CONTINUOUS
10
59.9505
20
-78.1048
11
59.9435
21
-78.0918
0
LINE
8
BLACK
6
CONTINUOUS
10
59.9435
20
-78.0918
11
59.9393
21
-78.0777
0
LINE
8
BLACK
6
CONTINUOUS
10
59.9393
20
-78.0777
11
59.9378
21
-78.0631
0
LINE
8
BLACK
6
CONTINUOUS
10
59.9378
20
-78.0631
11
59.9393
21
-78.0485
0
LINE
8
BLACK
6
CONTINUOUS
10
59.9393
20
-78.0485
11
59.9435
21
-78.0344
0
LINE
8
BLACK
6
CONTINUOUS
10
59.9435
20
-78.0344
11
59.9505
21
-78.0214
0
LINE
8
BLACK
6
CONTINUOUS
10
59.9505
20
-78.0214
11
59.9598
21
-78.0101
0
LINE
8
BLACK
6
CONTINUOUS
10
59.9598
20
-78.0101
11
60.8967
21
-77.0731
0
LINE
8
BLACK
6
CONTINUOUS
10
60.8967
20
-77.0731
11
60.9081
21
-77.0638
0
LINE
8
BLACK
6
CONTINUOUS
10
60.9081
20
-77.0638
11
60.921
21
-77.0569
0
LINE
8
BLACK
6
CONTINUOUS
10
60.921
20
-77.0569
11
60.9351
21
-77.0526
0
LINE
8
BLACK
6
CONTINUOUS
10
60.9351
20
-77.0526
11
60.9497
21
-77.0512
0
LINE
8
BLACK
6
CONTINUOUS
10
60.9497
20
-77.0512
11
60.9644
21
-77.0526
0
LINE
8
BLACK
6
CONTINUOUS
10
51.0649
20
-77.0526
11
51.079
21
-77.0569
0
LINE
8
BLACK
6
CONTINUOUS
10
51.079
20
-77.0569
11
51.0919
21
-77.0638
0
LINE
8
BLACK
6
CONTINUOUS
10
51.0919
20
-77.0638
11
51.1033
21
-77.0731
0
LINE
8
BLACK
6
CONTINUOUS
10
51.1033
20
-77.0731
11
52.0402
21
-78.0101
0
LINE
8
BLACK
6
CONTINUOUS
10
52.0402
20
-78.0101
11
52.0495
21
-78.0214
0
LINE
8
BLACK
6
CONTINUOUS
10
52.0495
20
-78.0214
11
52.0565
21
-78.0344
0
LINE
8
BLACK
6
CONTINUOUS
10
52.0565
20
-78.0344
11
52.0607
21
-78.0485
0
LINE
8
BLACK
6
CONTINUOUS
10
52.0607
20
-78.0485
11
52.0622
21
-78.0631
0
LINE
8
BLACK
6
CONTINUOUS
10
52.0622
20
-78.0631
11
52.0607
21
-78.0777
0
LINE
8
BLACK
6
CONTINUOUS
10
52.0607
20
-78.0777
11
52.0565
21
-78.0918
0
LINE
8
BLACK
6
CONTINUOUS
10
52.0565
20
-78.0918
11
52.0495
21
-78.1048
0
LINE
8
BLACK
6
CONTINUOUS
10
52.0495
20
-78.1048
11
52.0402
21
-78.1161
0
LINE
8
BLACK
6
CONTINUOUS
10
52.0402
20
-78.1161
11
51.9341
21
-78.2222
0
LINE
8
BLACK
6
CONTINUOUS
10
51.9341
20
-78.2222
11
51.9228
21
-78.2315
0
LINE
8
BLACK
6
CONTINUOUS
10
51.9228
20
-78.2315
11
51.9098
21
-78.2384
0
LINE
8
BLACK
6
CONTINUOUS
10
51.9098
20
-78.2384
11
51.8957
21
-78.2427
0
LINE
8
BLACK
6
CONTINUOUS
10
51.8957
20
-78.2427
11
51.8811
21
-78.2441
0
LINE
8
BLACK
6
CONTINUOUS
10
51.8811
20
-78.2441
11
51.8665
21
-78.2427
0
LINE
8
BLACK
6
CONTINUOUS
10
51.8665
20
-78.2427
11
51.8524
21
-78.2384
0
LINE
8
BLACK
6
CONTINUOUS
10
51.8524
20
-78.2384
11
51.8394
21
-78.2315
0
LINE
8
BLACK
6
CONTINUOUS
10
51.8394
20
-78.2315
11
51.8281
21
-78.2222
0
LINE
8
BLACK
6
CONTINUOUS
10
51.8281
20
-78.2222
11
50.8912
21
-77.2853
0
LINE
8
BLACK
6
CONTINUOUS
10
50.8912
20
-77.2853
11
50.8818
21
-77.2739
0
LINE
8
BLACK
6
CONTINUOUS
10
50.8818
20
-77.2739
11
50.8749
21
-77.2609
0
LINE
8
BLACK
6
CONTINUOUS
10
50.8749
20
-77.2609
11
50.8706
21
-77.2469
0
LINE
8
BLACK
6
CONTINUOUS
10
50.8706
20
-77.2469
11
50.8692
21
-77.2322
0
LINE
8
BLACK
6
CONTINUOUS
10
50.8692
20
-77.2322
11
50.8706
21
-77.2176
0
LINE
8
BLACK
6
CONTINUOUS
10
50.8706
20
-77.2176
11
50.8749
21
-77.2035
0
LINE
8
BLACK
6
CONTINUOUS
10
50.8749
20
-77.2035
11
50.8818
21
-77.1906
0
LINE
8
BLACK
6
CONTINUOUS
10
50.8818
20
-77.1906
11
50.8912
21
-77.1792
0
LINE
8
BLACK
6
CONTINUOUS
10
50.8912
20
-77.1792
11
50.9972
21
-77.0731
0
LINE
8
BLACK
6
CONTINUOUS
10
50.9972
20
-77.0731
11
51.0086
21
-77.0638
0
LINE
8
BLACK
6
CONTINUOUS
10
51.0086
20
-77.0638
11
51.0216
21
-77.0569
0
LINE
8
BLACK
6
CONTINUOUS
10
51.0216
20
-77.0569
11
51.0356
21
-77.0526
0
LINE
8
BLACK
6
CONTINUOUS
10
51.0356
20
-77.0526
11
51.0503
21
-77.0512
0
LINE
8
BLACK
6
CONTINUOUS
10
51.0503
20
-77.0512
11
51.0649
21
-77.0526
0
LINE
8
BLACK
6
CONTINUOUS
10
66.0649
20
-77.0526
11
66.079
21
-77.0569
0
LINE
8
BLACK
6
CONTINUOUS
10
66.079
20
-77.0569
11
66.0919
21
-77.0638
0
LINE
8
BLACK
6
CONTINUOUS
10
66.0919
20
-77.0638
11
66.1033
21
-77.0731
0
LINE
8
BLACK
6
CONTINUOUS
10
66.1033
20
-77.0731
11
67.0402
21
-78.0101
0
LINE
8
BLACK
6
CONTINUOUS
10
67.0402
20
-78.0101
11
67.0495
21
-78.0214
0
LINE
8
BLACK
6
CONTINUOUS
10
67.0495
20
-78.0214
11
67.0565
21
-78.0344
0
LINE
8
BLACK
6
CONTINUOUS
10
67.0565
20
-78.0344
11
67.0607
21
-78.0485
0
LINE
8
BLACK
6
CONTINUOUS
10
67.0607
20
-78.0485
11
67.0622
21
-78.0631
0
LINE
8
BLACK
6
CONTINUOUS
10
67.0622
20
-78.0631
11
67.0607
21
-78.0777
0
LINE
8
BLACK
6
CONTINUOUS
10
67.0607
20
-78.0777
11
67.0565
21
-78.0918
0
LINE
8
BLACK
6
CONTINUOUS
10
67.0565
20
-78.0918
11
67.0495
21
-78.1048
0
LINE
8
BLACK
6
CONTINUOUS
10
67.0495
20
-78.1048
11
67.0402
21
-78.1161
0
LINE
8
BLACK
6
CONTINUOUS
10
67.0402
20
-78.1161
11
66.9342
21
-78.2222
0
LINE
8
BLACK
6
CONTINUOUS
10
66.9342
20
-78.2222
11
66.9228
21
-78.2315
0
LINE
8
BLACK
6
CONTINUOUS
10
66.9228
20
-78.2315
11
66.9098
21
-78.2384
0
LINE
8
BLACK
6
CONTINUOUS
10
66.9098
20
-78.2384
11
66.8958
21
-78.2427
0
LINE
8
BLACK
6
CONTINUOUS
10
66.8958
20
-78.2427
11
66.8811
21
-78.2441
0
LINE
8
BLACK
6
CONTINUOUS
10
66.8811
20
-78.2441
11
66.8665
21
-78.2427
0
LINE
8
BLACK
6
CONTINUOUS
10
66.8665
20
-78.2427
11
66.8524
21
-78.2384
0
LINE
8
BLACK
6
CONTINUOUS
10
66.8524
20
-78.2384
11
66.8395
21
-78.2315
0
LINE
8
BLACK
6
CONTINUOUS
10
66.8395
20
-78.2315
11
66.8281
21
-78.2222
0
LINE
8
BLACK
6
CONTINUOUS
10
66.8281
20
-78.2222
11
65.8912
21
-77.2853
0
LINE
8
BLACK
6
CONTINUOUS
10
65.8912
20
-77.2853
11
65.8818
21
-77.2739
0
LINE
8
BLACK
6
CONTINUOUS
10
65.8818
20
-77.2739
11
65.8749
21
-77.2609
0
LINE
8
BLACK
6
CONTINUOUS
10
65.8749
20
-77.2609
11
65.8706
21
-77.2469
0
LINE
8
BLACK
6
CONTINUOUS
10
65.8706
20
-77.2469
11
65.8692
21
-77.2322
0
LINE
8
BLACK
6
CONTINUOUS
10
65.8692
20
-77.2322
11
65.8706
21
-77.2176
0
LINE
8
BLACK
6
CONTINUOUS
10
65.8706
20
-77.2176
11
65.8749
21
-77.2035
0
LINE
8
BLACK
6
CONTINUOUS
10
65.8749
20
-77.2035
11
65.8818
21
-77.1906
0
LINE
8
BLACK
6
CONTINUOUS
10
65.8818
20
-77.1906
11
65.8912
21
-77.1792
0
LINE
8
BLACK
6
CONTINUOUS
10
65.8912
20
-77.1792
11
65.9972
21
-77.0731
0
LINE
8
BLACK
6
CONTINUOUS
10
65.9972
20
-77.0731
11
66.0086
21
-77.0638
0
LINE
8
BLACK
6
CONTINUOUS
10
66.0086
20
-77.0638
11
66.0216
21
-77.0569
0
LINE
8
BLACK
6
CONTINUOUS
10
66.0216
20
-77.0569
11
66.0356
21
-77.0526
0
LINE
8
BLACK
6
CONTINUOUS
10
66.0356
20
-77.0526
11
66.0503
21
-77.0512
0
LINE
8
BLACK
6
CONTINUOUS
10
66.0503
20
-77.0512
11
66.0649
21
-77.0526
0
LINE
8
BLACK
6
CONTINUOUS
10
75.9644
20
-77.0526
11
75.9785
21
-77.0569
0
LINE
8
BLACK
6
CONTINUOUS
10
75.9785
20
-77.0569
11
75.9914
21
-77.0638
0
LINE
8
BLACK
6
CONTINUOUS
10
75.9914
20
-77.0638
11
76.0028
21
-77.0731
0
LINE
8
BLACK
6
CONTINUOUS
10
76.0028
20
-77.0731
11
76.1089
21
-77.1792
0
LINE
8
BLACK
6
CONTINUOUS
10
76.1089
20
-77.1792
11
76.1182
21
-77.1906
0
LINE
8
BLACK
6
CONTINUOUS
10
76.1182
20
-77.1906
11
76.1251
21
-77.2035
0
LINE
8
BLACK
6
CONTINUOUS
10
76.1251
20
-77.2035
11
76.1294
21
-77.2176
0
LINE
8
BLACK
6
CONTINUOUS
10
76.1294
20
-77.2176
11
76.1308
21
-77.2322
0
LINE
8
BLACK
6
CONTINUOUS
10
76.1308
20
-77.2322
11
76.1294
21
-77.2469
0
LINE
8
BLACK
6
CONTINUOUS
10
76.1294
20
-77.2469
11
76.1251
21
-77.2609
0
LINE
8
BLACK
6
CONTINUOUS
10
76.1251
20
-77.2609
11
76.1182
21
-77.2739
0
LINE
8
BLACK
6
CONTINUOUS
10
76.1182
20
-77.2739
11
76.1089
21
-77.2853
0
LINE
8
BLACK
6
CONTINUOUS
10
76.1089
20
-77.2853
11
75.1719
21
-78.2222
0
LINE
8
BLACK
6
CONTINUOUS
10
75.1719
20
-78.2222
11
75.1606
21
-78.2315
0
LINE
8
BLACK
6
CONTINUOUS
10
75.1606
20
-78.2315
11
75.1476
21
-78.2384
0
LINE
8
BLACK
6
CONTINUOUS
10
75.1476
20
-78.2384
11
75.1335
21
-78.2427
0
LINE
8
BLACK
6
CONTINUOUS
10
75.1335
20
-78.2427
11
75.1189
21
-78.2441
0
LINE
8
BLACK
6
CONTINUOUS
10
75.1189
20
-78.2441
11
75.1043
21
-78.2427
0
LINE
8
BLACK
6
CONTINUOUS
10
75.1043
20
-78.2427
11
75.0902
21
-78.2384
0
LINE
8
BLACK
6
CONTINUOUS
10
75.0902
20
-78.2384
11
75.0772
21
-78.2315
0
LINE
8
BLACK
6
CONTINUOUS
10
75.0772
20
-78.2315
11
75.0659
21
-78.2222
0
LINE
8
BLACK
6
CONTINUOUS
10
75.0659
20
-78.2222
11
74.9598
21
-78.1161
0
LINE
8
BLACK
6
CONTINUOUS
10
74.9598
20
-78.1161
11
74.9505
21
-78.1048
0
LINE
8
BLACK
6
CONTINUOUS
10
74.9505
20
-78.1048
11
74.9436
21
-78.0918
0
LINE
8
BLACK
6
CONTINUOUS
10
74.9436
20
-78.0918
11
74.9393
21
-78.0777
0
LINE
8
BLACK
6
CONTINUOUS
10
74.9393
20
-78.0777
11
74.9378
21
-78.0631
0
LINE
8
BLACK
6
CONTINUOUS
10
74.9378
20
-78.0631
11
74.9393
21
-78.0485
0
LINE
8
BLACK
6
CONTINUOUS
10
74.9393
20
-78.0485
11
74.9436
21
-78.0344
0
LINE
8
BLACK
6
CONTINUOUS
10
74.9436
20
-78.0344
11
74.9505
21
-78.0214
0
LINE
8
BLACK
6
CONTINUOUS
10
74.9505
20
-78.0214
11
74.9598
21
-78.0101
0
LINE
8
BLACK
6
CONTINUOUS
10
74.9598
20
-78.0101
11
75.8967
21
-77.0731
0
LINE
8
BLACK
6
CONTINUOUS
10
75.8967
20
-77.0731
11
75.9081
21
-77.0638
0
LINE
8
BLACK
6
CONTINUOUS
10
75.9081
20
-77.0638
11
75.9211
21
-77.0569
0
LINE
8
BLACK
6
CONTINUOUS
10
75.9211
20
-77.0569
11
75.9351
21
-77.0526
0
LINE
8
BLACK
6
CONTINUOUS
10
75.9351
20
-77.0526
11
75.9498
21
-77.0512
0
LINE
8
BLACK
6
CONTINUOUS
10
75.9498
20
-77.0512
11
75.9644
21
-77.0526
0
LINE
8
BLACK
6
CONTINUOUS
10
60.6108
20
-76.6991
11
60.6249
21
-76.7033
0
LINE
8
BLACK
6
CONTINUOUS
10
60.6249
20
-76.7033
11
60.6379
21
-76.7103
0
LINE
8
BLACK
6
CONTINUOUS
10
60.6379
20
-76.7103
11
60.6492
21
-76.7196
0
LINE
8
BLACK
6
CONTINUOUS
10
60.6492
20
-76.7196
11
60.7553
21
-76.8256
0
LINE
8
BLACK
6
CONTINUOUS
10
60.7553
20
-76.8256
11
60.7646
21
-76.837
0
LINE
8
BLACK
6
CONTINUOUS
10
60.7646
20
-76.837
11
60.7716
21
-76.85
0
LINE
8
BLACK
6
CONTINUOUS
10
60.7716
20
-76.85
11
60.7758
21
-76.864
0
LINE
8
BLACK
6
CONTINUOUS
10
60.7758
20
-76.864
11
60.7773
21
-76.8787
0
LINE
8
BLACK
6
CONTINUOUS
10
60.7773
20
-76.8787
11
60.7758
21
-76.8933
0
LINE
8
BLACK
6
CONTINUOUS
10
60.7758
20
-76.8933
11
60.7716
21
-76.9074
0
LINE
8
BLACK
6
CONTINUOUS
10
60.7716
20
-76.9074
11
60.7646
21
-76.9203
0
LINE
8
BLACK
6
CONTINUOUS
10
60.7646
20
-76.9203
11
60.7553
21
-76.9317
0
LINE
8
BLACK
6
CONTINUOUS
10
60.7553
20
-76.9317
11
59.8184
21
-77.8686
0
LINE
8
BLACK
6
CONTINUOUS
10
59.8184
20
-77.8686
11
59.807
21
-77.878
0
LINE
8
BLACK
6
CONTINUOUS
10
59.807
20
-77.878
11
59.794
21
-77.8849
0
LINE
8
BLACK
6
CONTINUOUS
10
59.794
20
-77.8849
11
59.78
21
-77.8892
0
LINE
8
BLACK
6
CONTINUOUS
10
59.78
20
-77.8892
11
59.7653
21
-77.8906
0
LINE
8
BLACK
6
CONTINUOUS
10
59.7653
20
-77.8906
11
59.7507
21
-77.8892
0
LINE
8
BLACK
6
CONTINUOUS
10
59.7507
20
-77.8892
11
59.7366
21
-77.8849
0
LINE
8
BLACK
6
CONTINUOUS
10
59.7366
20
-77.8849
11
59.7237
21
-77.878
0
LINE
8
BLACK
6
CONTINUOUS
10
59.7237
20
-77.878
11
59.7123
21
-77.8686
0
LINE
8
BLACK
6
CONTINUOUS
10
59.7123
20
-77.8686
11
59.6062
21
-77.7626
0
LINE
8
BLACK
6
CONTINUOUS
10
59.6062
20
-77.7626
11
59.5969
21
-77.7512
0
LINE
8
BLACK
6
CONTINUOUS
10
59.5969
20
-77.7512
11
59.59
21
-77.7382
0
LINE
8
BLACK
6
CONTINUOUS
10
59.59
20
-77.7382
11
59.5857
21
-77.7242
0
LINE
8
BLACK
6
CONTINUOUS
10
59.5857
20
-77.7242
11
59.5843
21
-77.7095
0
LINE
8
BLACK
6
CONTINUOUS
10
59.5843
20
-77.7095
11
59.5857
21
-77.6949
0
LINE
8
BLACK
6
CONTINUOUS
10
59.5857
20
-77.6949
11
59.59
21
-77.6808
0
LINE
8
BLACK
6
CONTINUOUS
10
59.59
20
-77.6808
11
59.5969
21
-77.6679
0
LINE
8
BLACK
6
CONTINUOUS
10
59.5969
20
-77.6679
11
59.6062
21
-77.6565
0
LINE
8
BLACK
6
CONTINUOUS
10
59.6062
20
-77.6565
11
60.5432
21
-76.7196
0
LINE
8
BLACK
6
CONTINUOUS
10
60.5432
20
-76.7196
11
60.5545
21
-76.7103
0
LINE
8
BLACK
6
CONTINUOUS
10
60.5545
20
-76.7103
11
60.5675
21
-76.7033
0
LINE
8
BLACK
6
CONTINUOUS
10
60.5675
20
-76.7033
11
60.5816
21
-76.6991
0
LINE
8
BLACK
6
CONTINUOUS
10
60.5816
20
-76.6991
11
60.5962
21
-76.6976
0
LINE
8
BLACK
6
CONTINUOUS
10
60.5962
20
-76.6976
11
60.6108
21
-76.6991
0
LINE
8
BLACK
6
CONTINUOUS
10
66.4185
20
-76.6991
11
66.4325
21
-76.7033
0
LINE
8
BLACK
6
CONTINUOUS
10
66.4325
20
-76.7033
11
66.4455
21
-76.7103
0
LINE
8
BLACK
6
CONTINUOUS
10
66.4455
20
-76.7103
11
66.4569
21
-76.7196
0
LINE
8
BLACK
6
CONTINUOUS
10
66.4569
20
-76.7196
11
67.3938
21
-77.6565
0
LINE
8
BLACK
6
CONTINUOUS
10
67.3938
20
-77.6565
11
67.4031
21
-77.6679
0
LINE
8
BLACK
6
CONTINUOUS
10
67.4031
20
-77.6679
11
67.41
21
-77.6808
0
LINE
8
BLACK
6
CONTINUOUS
10
67.41
20
-77.6808
11
67.4143
21
-77.6949
0
LINE
8
BLACK
6
CONTINUOUS
10
67.4143
20
-77.6949
11
67.4157
21
-77.7095
0
LINE
8
BLACK
6
CONTINUOUS
10
67.4157
20
-77.7095
11
67.4143
21
-77.7242
0
LINE
8
BLACK
6
CONTINUOUS
10
67.4143
20
-77.7242
11
67.41
21
-77.7382
0
LINE
8
BLACK
6
CONTINUOUS
10
67.41
20
-77.7382
11
67.4031
21
-77.7512
0
LINE
8
BLACK
6
CONTINUOUS
10
67.4031
20
-77.7512
11
67.3938
21
-77.7626
0
LINE
8
BLACK
6
CONTINUOUS
10
67.3938
20
-77.7626
11
67.2877
21
-77.8686
0
LINE
8
BLACK
6
CONTINUOUS
10
67.2877
20
-77.8686
11
67.2763
21
-77.878
0
LINE
8
BLACK
6
CONTINUOUS
10
67.2763
20
-77.878
11
67.2634
21
-77.8849
0
LINE
8
BLACK
6
CONTINUOUS
10
67.2634
20
-77.8849
11
67.2493
21
-77.8892
0
LINE
8
BLACK
6
CONTINUOUS
10
67.2493
20
-77.8892
11
67.2347
21
-77.8906
0
LINE
8
BLACK
6
CONTINUOUS
10
67.2347
20
-77.8906
11
67.22
21
-77.8892
0
LINE
8
BLACK
6
CONTINUOUS
10
67.22
20
-77.8892
11
67.206
21
-77.8849
0
LINE
8
BLACK
6
CONTINUOUS
10
67.206
20
-77.8849
11
67.193
21
-77.878
0
LINE
8
BLACK
6
CONTINUOUS
10
67.193
20
-77.878
11
67.1816
21
-77.8686
0
LINE
8
BLACK
6
CONTINUOUS
10
67.1816
20
-77.8686
11
66.2447
21
-76.9317
0
LINE
8
BLACK
6
CONTINUOUS
10
66.2447
20
-76.9317
11
66.2354
21
-76.9203
0
LINE
8
BLACK
6
CONTINUOUS
10
66.2354
20
-76.9203
11
66.2285
21
-76.9074
0
LINE
8
BLACK
6
CONTINUOUS
10
66.2285
20
-76.9074
11
66.2242
21
-76.8933
0
LINE
8
BLACK
6
CONTINUOUS
10
66.2242
20
-76.8933
11
66.2228
21
-76.8787
0
LINE
8
BLACK
6
CONTINUOUS
10
66.2228
20
-76.8787
11
66.2242
21
-76.864
0
LINE
8
BLACK
6
CONTINUOUS
10
66.2242
20
-76.864
11
66.2285
21
-76.85
0
LINE
8
BLACK
6
CONTINUOUS
10
66.2285
20
-76.85
11
66.2354
21
-76.837
0
LINE
8
BLACK
6
CONTINUOUS
10
66.2354
20
-76.837
11
66.2447
21
-76.8256
0
LINE
8
BLACK
6
CONTINUOUS
10
66.2447
20
-76.8256
11
66.3508
21
-76.7196
0
LINE
8
BLACK
6
CONTINUOUS
10
66.3508
20
-76.7196
11
66.3622
21
-76.7103
0
LINE
8
BLACK
6
CONTINUOUS
10
66.3622
20
-76.7103
11
66.3751
21
-76.7033
0
LINE
8
BLACK
6
CONTINUOUS
10
66.3751
20
-76.7033
11
66.3892
21
-76.6991
0
LINE
8
BLACK
6
CONTINUOUS
10
66.3892
20
-76.6991
11
66.4038
21
-76.6976
0
LINE
8
BLACK
6
CONTINUOUS
10
66.4038
20
-76.6976
11
66.4185
21
-76.6991
0
LINE
8
BLACK
6
CONTINUOUS
10
75.6108
20
-76.6991
11
75.6249
21
-76.7033
0
LINE
8
BLACK
6
CONTINUOUS
10
75.6249
20
-76.7033
11
75.6379
21
-76.7103
0
LINE
8
BLACK
6
CONTINUOUS
10
75.6379
20
-76.7103
11
75.6492
21
-76.7196
0
LINE
8
BLACK
6
CONTINUOUS
10
75.6492
20
-76.7196
11
75.7553
21
-76.8256
0
LINE
8
BLACK
6
CONTINUOUS
10
75.7553
20
-76.8256
11
75.7646
21
-76.837
0
LINE
8
BLACK
6
CONTINUOUS
10
75.7646
20
-76.837
11
75.7716
21
-76.85
0
LINE
8
BLACK
6
CONTINUOUS
10
75.7716
20
-76.85
11
75.7758
21
-76.864
0
LINE
8
BLACK
6
CONTINUOUS
10
75.7758
20
-76.864
11
75.7773
21
-76.8787
0
LINE
8
BLACK
6
CONTINUOUS
10
75.7773
20
-76.8787
11
75.7758
21
-76.8933
0
LINE
8
BLACK
6
CONTINUOUS
10
75.7758
20
-76.8933
11
75.7716
21
-76.9074
0
LINE
8
BLACK
6
CONTINUOUS
10
75.7716
20
-76.9074
11
75.7646
21
-76.9203
0
LINE
8
BLACK
6
CONTINUOUS
10
75.7646
20
-76.9203
11
75.7553
21
-76.9317
0
LINE
8
BLACK
6
CONTINUOUS
10
75.7553
20
-76.9317
11
74.8184
21
-77.8686
0
LINE
8
BLACK
6
CONTINUOUS
10
74.8184
20
-77.8686
11
74.807
21
-77.878
0
LINE
8
BLACK
6
CONTINUOUS
10
74.807
20
-77.878
11
74.7941
21
-77.8849
0
LINE
8
BLACK
6
CONTINUOUS
10
74.7941
20
-77.8849
11
74.78
21
-77.8892
0
LINE
8
BLACK
6
CONTINUOUS
10
74.78
20
-77.8892
11
74.7654
21
-77.8906
0
LINE
8
BLACK
6
CONTINUOUS
10
74.7654
20
-77.8906
11
74.7507
21
-77.8892
0
LINE
8
BLACK
6
CONTINUOUS
10
74.7507
20
-77.8892
11
74.7367
21
-77.8849
0
LINE
8
BLACK
6
CONTINUOUS
10
74.7367
20
-77.8849
11
74.7237
21
-77.878
0
LINE
8
BLACK
6
CONTINUOUS
10
74.7237
20
-77.878
11
74.7123
21
-77.8686
0
LINE
8
BLACK
6
CONTINUOUS
10
74.7123
20
-77.8686
11
74.6063
21
-77.7626
0
LINE
8
BLACK
6
CONTINUOUS
10
74.6063
20
-77.7626
11
74.5969
21
-77.7512
0
LINE
8
BLACK
6
CONTINUOUS
10
74.5969
20
-77.7512
11
74.59
21
-77.7382
0
LINE
8
BLACK
6
CONTINUOUS
10
74.59
20
-77.7382
11
74.5857
21
-77.7242
0
LINE
8
BLACK
6
CONTINUOUS
10
74.5857
20
-77.7242
11
74.5843
21
-77.7095
0
LINE
8
BLACK
6
CONTINUOUS
10
74.5843
20
-77.7095
11
74.5857
21
-77.6949
0
LINE
8
BLACK
6
CONTINUOUS
10
74.5857
20
-77.6949
11
74.59
21
-77.6808
0
LINE
8
BLACK
6
CONTINUOUS
10
74.59
20
-77.6808
11
74.5969
21
-77.6679
0
LINE
8
BLACK
6
CONTINUOUS
10
74.5969
20
-77.6679
11
74.6063
21
-77.6565
0
LINE
8
BLACK
6
CONTINUOUS
10
74.6063
20
-77.6565
11
75.5432
21
-76.7196
0
LINE
8
BLACK
6
CONTINUOUS
10
75.5432
20
-76.7196
11
75.5545
21
-76.7103
0
LINE
8
BLACK
6
CONTINUOUS
10
75.5545
20
-76.7103
11
75.5675
21
-76.7033
0
LINE
8
BLACK
6
CONTINUOUS
10
75.5675
20
-76.7033
11
75.5816
21
-76.6991
0
LINE
8
BLACK
6
CONTINUOUS
10
75.5816
20
-76.6991
11
75.5962
21
-76.6976
0
LINE
8
BLACK
6
CONTINUOUS
10
75.5962
20
-76.6976
11
75.6108
21
-76.6991
0
LINE
8
BLACK
6
CONTINUOUS
10
51.4184
20
-76.6991
11
51.4325
21
-76.7033
0
LINE
8
BLACK
6
CONTINUOUS
10
51.4325
20
-76.7033
11
51.4455
21
-76.7103
0
LINE
8
BLACK
6
CONTINUOUS
10
51.4455
20
-76.7103
11
51.4568
21
-76.7196
0
LINE
8
BLACK
6
CONTINUOUS
10
51.4568
20
-76.7196
11
52.3938
21
-77.6565
0
LINE
8
BLACK
6
CONTINUOUS
10
52.3938
20
-77.6565
11
52.4031
21
-77.6679
0
LINE
8
BLACK
6
CONTINUOUS
10
52.4031
20
-77.6679
11
52.41
21
-77.6808
0
LINE
8
BLACK
6
CONTINUOUS
10
52.41
20
-77.6808
11
52.4143
21
-77.6949
0
LINE
8
BLACK
6
CONTINUOUS
10
52.4143
20
-77.6949
11
52.4157
21
-77.7095
0
LINE
8
BLACK
6
CONTINUOUS
10
52.4157
20
-77.7095
11
52.4143
21
-77.7242
0
LINE
8
BLACK
6
CONTINUOUS
10
52.4143
20
-77.7242
11
52.41
21
-77.7382
0
LINE
8
BLACK
6
CONTINUOUS
10
52.41
20
-77.7382
11
52.4031
21
-77.7512
0
LINE
8
BLACK
6
CONTINUOUS
10
52.4031
20
-77.7512
11
52.3938
21
-77.7626
0
LINE
8
BLACK
6
CONTINUOUS
10
52.3938
20
-77.7626
11
52.2877
21
-77.8686
0
LINE
8
BLACK
6
CONTINUOUS
10
52.2877
20
-77.8686
11
52.2763
21
-77.878
0
LINE
8
BLACK
6
CONTINUOUS
10
52.2763
20
-77.878
11
52.2634
21
-77.8849
0
LINE
8
BLACK
6
CONTINUOUS
10
52.2634
20
-77.8849
11
52.2493
21
-77.8892
0
LINE
8
BLACK
6
CONTINUOUS
10
52.2493
20
-77.8892
11
52.2347
21
-77.8906
0
LINE
8
BLACK
6
CONTINUOUS
10
52.2347
20
-77.8906
11
52.22
21
-77.8892
0
LINE
8
BLACK
6
CONTINUOUS
10
52.22
20
-77.8892
11
52.206
21
-77.8849
0
LINE
8
BLACK
6
CONTINUOUS
10
52.206
20
-77.8849
11
52.193
21
-77.878
0
LINE
8
BLACK
6
CONTINUOUS
10
52.193
20
-77.878
11
52.1816
21
-77.8686
0
LINE
8
BLACK
6
CONTINUOUS
10
52.1816
20
-77.8686
11
51.2447
21
-76.9317
0
LINE
8
BLACK
6
CONTINUOUS
10
51.2447
20
-76.9317
11
51.2354
21
-76.9203
0
LINE
8
BLACK
6
CONTINUOUS
10
51.2354
20
-76.9203
11
51.2284
21
-76.9074
0
LINE
8
BLACK
6
CONTINUOUS
10
51.2284
20
-76.9074
11
51.2242
21
-76.8933
0
LINE
8
BLACK
6
CONTINUOUS
10
51.2242
20
-76.8933
11
51.2227
21
-76.8787
0
LINE
8
BLACK
6
CONTINUOUS
10
51.2227
20
-76.8787
11
51.2242
21
-76.864
0
LINE
8
BLACK
6
CONTINUOUS
10
51.2242
20
-76.864
11
51.2284
21
-76.85
0
LINE
8
BLACK
6
CONTINUOUS
10
51.2284
20
-76.85
11
51.2354
21
-76.837
0
LINE
8
BLACK
6
CONTINUOUS
10
51.2354
20
-76.837
11
51.2447
21
-76.8256
0
LINE
8
BLACK
6
CONTINUOUS
10
51.2447
20
-76.8256
11
51.3508
21
-76.7196
0
LINE
8
BLACK
6
CONTINUOUS
10
51.3508
20
-76.7196
11
51.3621
21
-76.7103
0
LINE
8
BLACK
6
CONTINUOUS
10
51.3621
20
-76.7103
11
51.3751
21
-76.7033
0
LINE
8
BLACK
6
CONTINUOUS
10
51.3751
20
-76.7033
11
51.3892
21
-76.6991
0
LINE
8
BLACK
6
CONTINUOUS
10
51.3892
20
-76.6991
11
51.4038
21
-76.6976
0
LINE
8
BLACK
6
CONTINUOUS
10
51.4038
20
-76.6976
11
51.4184
21
-76.6991
0
LINE
8
BLACK
6
CONTINUOUS
10
60.2573
20
-76.3455
11
60.2713
21
-76.3498
0
LINE
8
BLACK
6
CONTINUOUS
10
60.2713
20
-76.3498
11
60.2843
21
-76.3567
0
LINE
8
BLACK
6
CONTINUOUS
10
60.2843
20
-76.3567
11
60.2957
21
-76.366
0
LINE
8
BLACK
6
CONTINUOUS
10
60.2957
20
-76.366
11
60.4017
21
-76.4721
0
LINE
8
BLACK
6
CONTINUOUS
10
60.4017
20
-76.4721
11
60.4111
21
-76.4835
0
LINE
8
BLACK
6
CONTINUOUS
10
60.4111
20
-76.4835
11
60.418
21
-76.4964
0
LINE
8
BLACK
6
CONTINUOUS
10
60.418
20
-76.4964
11
60.4223
21
-76.5105
0
LINE
8
BLACK
6
CONTINUOUS
10
60.4223
20
-76.5105
11
60.4237
21
-76.5251
0
LINE
8
BLACK
6
CONTINUOUS
10
60.4237
20
-76.5251
11
60.4223
21
-76.5398
0
LINE
8
BLACK
6
CONTINUOUS
10
60.4223
20
-76.5398
11
60.418
21
-76.5538
0
LINE
8
BLACK
6
CONTINUOUS
10
60.418
20
-76.5538
11
60.4111
21
-76.5668
0
LINE
8
BLACK
6
CONTINUOUS
10
60.4111
20
-76.5668
11
60.4017
21
-76.5782
0
LINE
8
BLACK
6
CONTINUOUS
10
60.4017
20
-76.5782
11
59.4648
21
-77.5151
0
LINE
8
BLACK
6
CONTINUOUS
10
59.4648
20
-77.5151
11
59.4535
21
-77.5244
0
LINE
8
BLACK
6
CONTINUOUS
10
59.4535
20
-77.5244
11
59.4405
21
-77.5313
0
LINE
8
BLACK
6
CONTINUOUS
10
59.4405
20
-77.5313
11
59.4264
21
-77.5356
0
LINE
8
BLACK
6
CONTINUOUS
10
59.4264
20
-77.5356
11
59.4118
21
-77.537
0
LINE
8
BLACK
6
CONTINUOUS
10
59.4118
20
-77.537
11
59.3972
21
-77.5356
0
LINE
8
BLACK
6
CONTINUOUS
10
59.3972
20
-77.5356
11
59.3831
21
-77.5313
0
LINE
8
BLACK
6
CONTINUOUS
10
59.3831
20
-77.5313
11
59.3701
21
-77.5244
0
LINE
8
BLACK
6
CONTINUOUS
10
59.3701
20
-77.5244
11
59.3588
21
-77.5151
0
LINE
8
BLACK
6
CONTINUOUS
10
59.3588
20
-77.5151
11
59.2527
21
-77.409
0
LINE
8
BLACK
6
CONTINUOUS
10
59.2527
20
-77.409
11
59.2434
21
-77.3976
0
LINE
8
BLACK
6
CONTINUOUS
10
59.2434
20
-77.3976
11
59.2364
21
-77.3847
0
LINE
8
BLACK
6
CONTINUOUS
10
59.2364
20
-77.3847
11
59.2322
21
-77.3706
0
LINE
8
BLACK
6
CONTINUOUS
10
59.2322
20
-77.3706
11
59.2307
21
-77.356
0
LINE
8
BLACK
6
CONTINUOUS
10
59.2307
20
-77.356
11
59.2322
21
-77.3413
0
LINE
8
BLACK
6
CONTINUOUS
10
59.2322
20
-77.3413
11
59.2364
21
-77.3273
0
LINE
8
BLACK
6
CONTINUOUS
10
59.2364
20
-77.3273
11
59.2434
21
-77.3143
0
LINE
8
BLACK
6
CONTINUOUS
10
59.2434
20
-77.3143
11
59.2527
21
-77.3029
0
LINE
8
BLACK
6
CONTINUOUS
10
59.2527
20
-77.3029
11
60.1896
21
-76.366
0
LINE
8
BLACK
6
CONTINUOUS
10
60.1896
20
-76.366
11
60.201
21
-76.3567
0
LINE
8
BLACK
6
CONTINUOUS
10
60.201
20
-76.3567
11
60.2139
21
-76.3498
0
LINE
8
BLACK
6
CONTINUOUS
10
60.2139
20
-76.3498
11
60.228
21
-76.3455
0
LINE
8
BLACK
6
CONTINUOUS
10
60.228
20
-76.3455
11
60.2426
21
-76.3441
0
LINE
8
BLACK
6
CONTINUOUS
10
60.2426
20
-76.3441
11
60.2573
21
-76.3455
0
LINE
8
BLACK
6
CONTINUOUS
10
75.2573
20
-76.3455
11
75.2714
21
-76.3498
0
LINE
8
BLACK
6
CONTINUOUS
10
75.2714
20
-76.3498
11
75.2843
21
-76.3567
0
LINE
8
BLACK
6
CONTINUOUS
10
75.2843
20
-76.3567
11
75.2957
21
-76.366
0
LINE
8
BLACK
6
CONTINUOUS
10
75.2957
20
-76.366
11
75.4018
21
-76.4721
0
LINE
8
BLACK
6
CONTINUOUS
10
75.4018
20
-76.4721
11
75.4111
21
-76.4835
0
LINE
8
BLACK
6
CONTINUOUS
10
75.4111
20
-76.4835
11
75.418
21
-76.4964
0
LINE
8
BLACK
6
CONTINUOUS
10
75.418
20
-76.4964
11
75.4223
21
-76.5105
0
LINE
8
BLACK
6
CONTINUOUS
10
75.4223
20
-76.5105
11
75.4237
21
-76.5251
0
LINE
8
BLACK
6
CONTINUOUS
10
75.4237
20
-76.5251
11
75.4223
21
-76.5398
0
LINE
8
BLACK
6
CONTINUOUS
10
75.4223
20
-76.5398
11
75.418
21
-76.5538
0
LINE
8
BLACK
6
CONTINUOUS
10
75.418
20
-76.5538
11
75.4111
21
-76.5668
0
LINE
8
BLACK
6
CONTINUOUS
10
75.4111
20
-76.5668
11
75.4018
21
-76.5782
0
LINE
8
BLACK
6
CONTINUOUS
10
75.4018
20
-76.5782
11
74.4648
21
-77.5151
0
LINE
8
BLACK
6
CONTINUOUS
10
74.4648
20
-77.5151
11
74.4535
21
-77.5244
0
LINE
8
BLACK
6
CONTINUOUS
10
74.4535
20
-77.5244
11
74.4405
21
-77.5313
0
LINE
8
BLACK
6
CONTINUOUS
10
74.4405
20
-77.5313
11
74.4264
21
-77.5356
0
LINE
8
BLACK
6
CONTINUOUS
10
74.4264
20
-77.5356
11
74.4118
21
-77.537
0
LINE
8
BLACK
6
CONTINUOUS
10
74.4118
20
-77.537
11
74.3972
21
-77.5356
0
LINE
8
BLACK
6
CONTINUOUS
10
74.3972
20
-77.5356
11
74.3831
21
-77.5313
0
LINE
8
BLACK
6
CONTINUOUS
10
74.3831
20
-77.5313
11
74.3701
21
-77.5244
0
LINE
8
BLACK
6
CONTINUOUS
10
74.3701
20
-77.5244
11
74.3588
21
-77.5151
0
LINE
8
BLACK
6
CONTINUOUS
10
74.3588
20
-77.5151
11
74.2527
21
-77.409
0
LINE
8
BLACK
6
CONTINUOUS
10
74.2527
20
-77.409
11
74.2434
21
-77.3976
0
LINE
8
BLACK
6
CONTINUOUS
10
74.2434
20
-77.3976
11
74.2365
21
-77.3847
0
LINE
8
BLACK
6
CONTINUOUS
10
74.2365
20
-77.3847
11
74.2322
21
-77.3706
0
LINE
8
BLACK
6
CONTINUOUS
10
74.2322
20
-77.3706
11
74.2307
21
-77.356
0
LINE
8
BLACK
6
CONTINUOUS
10
74.2307
20
-77.356
11
74.2322
21
-77.3413
0
LINE
8
BLACK
6
CONTINUOUS
10
74.2322
20
-77.3413
11
74.2365
21
-77.3273
0
LINE
8
BLACK
6
CONTINUOUS
10
74.2365
20
-77.3273
11
74.2434
21
-77.3143
0
LINE
8
BLACK
6
CONTINUOUS
10
74.2434
20
-77.3143
11
74.2527
21
-77.3029
0
LINE
8
BLACK
6
CONTINUOUS
10
74.2527
20
-77.3029
11
75.1896
21
-76.366
0
LINE
8
BLACK
6
CONTINUOUS
10
75.1896
20
-76.366
11
75.201
21
-76.3567
0
LINE
8
BLACK
6
CONTINUOUS
10
75.201
20
-76.3567
11
75.214
21
-76.3498
0
LINE
8
BLACK
6
CONTINUOUS
10
75.214
20
-76.3498
11
75.228
21
-76.3455
0
LINE
8
BLACK
6
CONTINUOUS
10
75.228
20
-76.3455
11
75.2427
21
-76.3441
0
LINE
8
BLACK
6
CONTINUOUS
10
75.2427
20
-76.3441
11
75.2573
21
-76.3455
0
LINE
8
BLACK
6
CONTINUOUS
10
66.772
20
-76.3455
11
66.7861
21
-76.3498
0
LINE
8
BLACK
6
CONTINUOUS
10
66.7861
20
-76.3498
11
66.799
21
-76.3567
0
LINE
8
BLACK
6
CONTINUOUS
10
66.799
20
-76.3567
11
66.8104
21
-76.366
0
LINE
8
BLACK
6
CONTINUOUS
10
66.8104
20
-76.366
11
67.7473
21
-77.3029
0
LINE
8
BLACK
6
CONTINUOUS
10
67.7473
20
-77.3029
11
67.7567
21
-77.3143
0
LINE
8
BLACK
6
CONTINUOUS
10
67.7567
20
-77.3143
11
67.7636
21
-77.3273
0
LINE
8
BLACK
6
CONTINUOUS
10
67.7636
20
-77.3273
11
67.7679
21
-77.3413
0
LINE
8
BLACK
6
CONTINUOUS
10
67.7679
20
-77.3413
11
67.7693
21
-77.356
0
LINE
8
BLACK
6
CONTINUOUS
10
67.7693
20
-77.356
11
67.7679
21
-77.3706
0
LINE
8
BLACK
6
CONTINUOUS
10
67.7679
20
-77.3706
11
67.7636
21
-77.3847
0
LINE
8
BLACK
6
CONTINUOUS
10
67.7636
20
-77.3847
11
67.7567
21
-77.3976
0
LINE
8
BLACK
6
CONTINUOUS
10
67.7567
20
-77.3976
11
67.7473
21
-77.409
0
LINE
8
BLACK
6
CONTINUOUS
10
67.7473
20
-77.409
11
67.6413
21
-77.5151
0
LINE
8
BLACK
6
CONTINUOUS
10
67.6413
20
-77.5151
11
67.6299
21
-77.5244
0
LINE
8
BLACK
6
CONTINUOUS
10
67.6299
20
-77.5244
11
67.6169
21
-77.5313
0
LINE
8
BLACK
6
CONTINUOUS
10
67.6169
20
-77.5313
11
67.6029
21
-77.5356
0
LINE
8
BLACK
6
CONTINUOUS
10
67.6029
20
-77.5356
11
67.5882
21
-77.537
0
LINE
8
BLACK
6
CONTINUOUS
10
67.5882
20
-77.537
11
67.5736
21
-77.5356
0
LINE
8
BLACK
6
CONTINUOUS
10
67.5736
20
-77.5356
11
67.5595
21
-77.5313
0
LINE
8
BLACK
6
CONTINUOUS
10
67.5595
20
-77.5313
11
67.5466
21
-77.5244
0
LINE
8
BLACK
6
CONTINUOUS
10
67.5466
20
-77.5244
11
67.5352
21
-77.5151
0
LINE
8
BLACK
6
CONTINUOUS
10
67.5352
20
-77.5151
11
66.5983
21
-76.5782
0
LINE
8
BLACK
6
CONTINUOUS
10
66.5983
20
-76.5782
11
66.589
21
-76.5668
0
LINE
8
BLACK
6
CONTINUOUS
10
66.589
20
-76.5668
11
66.582
21
-76.5538
0
LINE
8
BLACK
6
CONTINUOUS
10
66.582
20
-76.5538
11
66.5778
21
-76.5398
0
LINE
8
BLACK
6
CONTINUOUS
10
66.5778
20
-76.5398
11
66.5763
21
-76.5251
0
LINE
8
BLACK
6
CONTINUOUS
10
66.5763
20
-76.5251
11
66.5778
21
-76.5105
0
LINE
8
BLACK
6
CONTINUOUS
10
66.5778
20
-76.5105
11
66.582
21
-76.4964
0
LINE
8
BLACK
6
CONTINUOUS
10
66.582
20
-76.4964
11
66.589
21
-76.4835
0
LINE
8
BLACK
6
CONTINUOUS
10
66.589
20
-76.4835
11
66.5983
21
-76.4721
0
LINE
8
BLACK
6
CONTINUOUS
10
66.5983
20
-76.4721
11
66.7043
21
-76.366
0
LINE
8
BLACK
6
CONTINUOUS
10
66.7043
20
-76.366
11
66.7157
21
-76.3567
0
LINE
8
BLACK
6
CONTINUOUS
10
66.7157
20
-76.3567
11
66.7287
21
-76.3498
0
LINE
8
BLACK
6
CONTINUOUS
10
66.7287
20
-76.3498
11
66.7427
21
-76.3455
0
LINE
8
BLACK
6
CONTINUOUS
10
66.7427
20
-76.3455
11
66.7574
21
-76.3441
0
LINE
8
BLACK
6
CONTINUOUS
10
66.7574
20
-76.3441
11
66.772
21
-76.3455
0
LINE
8
BLACK
6
CONTINUOUS
10
51.772
20
-76.3455
11
51.7861
21
-76.3498
0
LINE
8
BLACK
6
CONTINUOUS
10
51.7861
20
-76.3498
11
51.799
21
-76.3567
0
LINE
8
BLACK
6
CONTINUOUS
10
51.799
20
-76.3567
11
51.8104
21
-76.366
0
LINE
8
BLACK
6
CONTINUOUS
10
51.8104
20
-76.366
11
52.7473
21
-77.3029
0
LINE
8
BLACK
6
CONTINUOUS
10
52.7473
20
-77.3029
11
52.7566
21
-77.3143
0
LINE
8
BLACK
6
CONTINUOUS
10
52.7566
20
-77.3143
11
52.7636
21
-77.3273
0
LINE
8
BLACK
6
CONTINUOUS
10
52.7636
20
-77.3273
11
52.7678
21
-77.3413
0
LINE
8
BLACK
6
CONTINUOUS
10
52.7678
20
-77.3413
11
52.7693
21
-77.356
0
LINE
8
BLACK
6
CONTINUOUS
10
52.7693
20
-77.356
11
52.7678
21
-77.3706
0
LINE
8
BLACK
6
CONTINUOUS
10
52.7678
20
-77.3706
11
52.7636
21
-77.3847
0
LINE
8
BLACK
6
CONTINUOUS
10
52.7636
20
-77.3847
11
52.7566
21
-77.3976
0
LINE
8
BLACK
6
CONTINUOUS
10
52.7566
20
-77.3976
11
52.7473
21
-77.409
0
LINE
8
BLACK
6
CONTINUOUS
10
52.7473
20
-77.409
11
52.6412
21
-77.5151
0
LINE
8
BLACK
6
CONTINUOUS
10
52.6412
20
-77.5151
11
52.6299
21
-77.5244
0
LINE
8
BLACK
6
CONTINUOUS
10
52.6299
20
-77.5244
11
52.6169
21
-77.5313
0
LINE
8
BLACK
6
CONTINUOUS
10
52.6169
20
-77.5313
11
52.6028
21
-77.5356
0
LINE
8
BLACK
6
CONTINUOUS
10
52.6028
20
-77.5356
11
52.5882
21
-77.537
0
LINE
8
BLACK
6
CONTINUOUS
10
52.5882
20
-77.537
11
52.5736
21
-77.5356
0
LINE
8
BLACK
6
CONTINUOUS
10
52.5736
20
-77.5356
11
52.5595
21
-77.5313
0
LINE
8
BLACK
6
CONTINUOUS
10
52.5595
20
-77.5313
11
52.5465
21
-77.5244
0
LINE
8
BLACK
6
CONTINUOUS
10
52.5465
20
-77.5244
11
52.5352
21
-77.5151
0
LINE
8
BLACK
6
CONTINUOUS
10
52.5352
20
-77.5151
11
51.5983
21
-76.5782
0
LINE
8
BLACK
6
CONTINUOUS
10
51.5983
20
-76.5782
11
51.5889
21
-76.5668
0
LINE
8
BLACK
6
CONTINUOUS
10
51.5889
20
-76.5668
11
51.582
21
-76.5538
0
LINE
8
BLACK
6
CONTINUOUS
10
51.582
20
-76.5538
11
51.5777
21
-76.5398
0
LINE
8
BLACK
6
CONTINUOUS
10
51.5777
20
-76.5398
11
51.5763
21
-76.5251
0
LINE
8
BLACK
6
CONTINUOUS
10
51.5763
20
-76.5251
11
51.5777
21
-76.5105
0
LINE
8
BLACK
6
CONTINUOUS
10
51.5777
20
-76.5105
11
51.582
21
-76.4964
0
LINE
8
BLACK
6
CONTINUOUS
10
51.582
20
-76.4964
11
51.5889
21
-76.4835
0
LINE
8
BLACK
6
CONTINUOUS
10
51.5889
20
-76.4835
11
51.5983
21
-76.4721
0
LINE
8
BLACK
6
CONTINUOUS
10
51.5983
20
-76.4721
11
51.7043
21
-76.366
0
LINE
8
BLACK
6
CONTINUOUS
10
51.7043
20
-76.366
11
51.7157
21
-76.3567
0
LINE
8
BLACK
6
CONTINUOUS
10
51.7157
20
-76.3567
11
51.7287
21
-76.3498
0
LINE
8
BLACK
6
CONTINUOUS
10
51.7287
20
-76.3498
11
51.7427
21
-76.3455
0
LINE
8
BLACK
6
CONTINUOUS
10
51.7427
20
-76.3455
11
51.7574
21
-76.3441
0
LINE
8
BLACK
6
CONTINUOUS
10
51.7574
20
-76.3441
11
51.772
21
-76.3455
0
LINE
8
BLACK
6
CONTINUOUS
10
74.9037
20
-75.9919
11
74.9178
21
-75.9962
0
LINE
8
BLACK
6
CONTINUOUS
10
74.9178
20
-75.9962
11
74.9308
21
-76.0031
0
LINE
8
BLACK
6
CONTINUOUS
10
74.9308
20
-76.0031
11
74.9421
21
-76.0125
0
LINE
8
BLACK
6
CONTINUOUS
10
74.9421
20
-76.0125
11
75.0482
21
-76.1185
0
LINE
8
BLACK
6
CONTINUOUS
10
75.0482
20
-76.1185
11
75.0575
21
-76.1299
0
LINE
8
BLACK
6
CONTINUOUS
10
75.0575
20
-76.1299
11
75.0645
21
-76.1429
0
LINE
8
BLACK
6
CONTINUOUS
10
75.0645
20
-76.1429
11
75.0687
21
-76.1569
0
LINE
8
BLACK
6
CONTINUOUS
10
75.0687
20
-76.1569
11
75.0702
21
-76.1716
0
LINE
8
BLACK
6
CONTINUOUS
10
75.0702
20
-76.1716
11
75.0687
21
-76.1862
0
LINE
8
BLACK
6
CONTINUOUS
10
75.0687
20
-76.1862
11
75.0645
21
-76.2003
0
LINE
8
BLACK
6
CONTINUOUS
10
75.0645
20
-76.2003
11
75.0575
21
-76.2132
0
LINE
8
BLACK
6
CONTINUOUS
10
75.0575
20
-76.2132
11
75.0482
21
-76.2246
0
LINE
8
BLACK
6
CONTINUOUS
10
75.0482
20
-76.2246
11
74.1113
21
-77.1615
0
LINE
8
BLACK
6
CONTINUOUS
10
74.1113
20
-77.1615
11
74.0999
21
-77.1709
0
LINE
8
BLACK
6
CONTINUOUS
10
74.0999
20
-77.1709
11
74.087
21
-77.1778
0
LINE
8
BLACK
6
CONTINUOUS
10
74.087
20
-77.1778
11
74.0729
21
-77.182
0
LINE
8
BLACK
6
CONTINUOUS
10
74.0729
20
-77.182
11
74.0583
21
-77.1835
0
LINE
8
BLACK
6
CONTINUOUS
10
74.0583
20
-77.1835
11
74.0436
21
-77.182
0
LINE
8
BLACK
6
CONTINUOUS
10
74.0436
20
-77.182
11
74.0296
21
-77.1778
0
LINE
8
BLACK
6
CONTINUOUS
10
74.0296
20
-77.1778
11
74.0166
21
-77.1709
0
LINE
8
BLACK
6
CONTINUOUS
10
74.0166
20
-77.1709
11
74.0052
21
-77.1615
0
LINE
8
BLACK
6
CONTINUOUS
10
74.0052
20
-77.1615
11
73.8992
21
-77.0555
0
LINE
8
BLACK
6
CONTINUOUS
10
73.8992
20
-77.0555
11
73.8898
21
-77.0441
0
LINE
8
BLACK
6
CONTINUOUS
10
73.8898
20
-77.0441
11
73.8829
21
-77.0311
0
LINE
8
BLACK
6
CONTINUOUS
10
73.8829
20
-77.0311
11
73.8786
21
-77.0171
0
LINE
8
BLACK
6
CONTINUOUS
10
73.8786
20
-77.0171
11
73.8772
21
-77.0024
0
LINE
8
BLACK
6
CONTINUOUS
10
73.8772
20
-77.0024
11
73.8786
21
-76.9878
0
LINE
8
BLACK
6
CONTINUOUS
10
73.8786
20
-76.9878
11
73.8829
21
-76.9737
0
LINE
8
BLACK
6
CONTINUOUS
10
73.8829
20
-76.9737
11
73.8898
21
-76.9608
0
LINE
8
BLACK
6
CONTINUOUS
10
73.8898
20
-76.9608
11
73.8992
21
-76.9494
0
LINE
8
BLACK
6
CONTINUOUS
10
73.8992
20
-76.9494
11
74.8361
21
-76.0125
0
LINE
8
BLACK
6
CONTINUOUS
10
74.8361
20
-76.0125
11
74.8474
21
-76.0031
0
LINE
8
BLACK
6
CONTINUOUS
10
74.8474
20
-76.0031
11
74.8604
21
-75.9962
0
LINE
8
BLACK
6
CONTINUOUS
10
74.8604
20
-75.9962
11
74.8745
21
-75.9919
0
LINE
8
BLACK
6
CONTINUOUS
10
74.8745
20
-75.9919
11
74.8891
21
-75.9905
0
LINE
8
BLACK
6
CONTINUOUS
10
74.8891
20
-75.9905
11
74.9037
21
-75.9919
0
LINE
8
BLACK
6
CONTINUOUS
10
67.1256
20
-75.9919
11
67.1396
21
-75.9962
0
LINE
8
BLACK
6
CONTINUOUS
10
67.1396
20
-75.9962
11
67.1526
21
-76.0031
0
LINE
8
BLACK
6
CONTINUOUS
10
67.1526
20
-76.0031
11
67.164
21
-76.0125
0
LINE
8
BLACK
6
CONTINUOUS
10
67.164
20
-76.0125
11
68.1009
21
-76.9494
0
LINE
8
BLACK
6
CONTINUOUS
10
68.1009
20
-76.9494
11
68.1102
21
-76.9608
0
LINE
8
BLACK
6
CONTINUOUS
10
68.1102
20
-76.9608
11
68.1171
21
-76.9737
0
LINE
8
BLACK
6
CONTINUOUS
10
68.1171
20
-76.9737
11
68.1214
21
-76.9878
0
LINE
8
BLACK
6
CONTINUOUS
10
68.1214
20
-76.9878
11
68.1228
21
-77.0024
0
LINE
8
BLACK
6
CONTINUOUS
10
68.1228
20
-77.0024
11
68.1214
21
-77.0171
0
LINE
8
BLACK
6
CONTINUOUS
10
68.1214
20
-77.0171
11
68.1171
21
-77.0311
0
LINE
8
BLACK
6
CONTINUOUS
10
68.1171
20
-77.0311
11
68.1102
21
-77.0441
0
LINE
8
BLACK
6
CONTINUOUS
10
68.1102
20
-77.0441
11
68.1009
21
-77.0555
0
LINE
8
BLACK
6
CONTINUOUS
10
68.1009
20
-77.0555
11
67.9948
21
-77.1615
0
LINE
8
BLACK
6
CONTINUOUS
10
67.9948
20
-77.1615
11
67.9834
21
-77.1709
0
LINE
8
BLACK
6
CONTINUOUS
10
67.9834
20
-77.1709
11
67.9705
21
-77.1778
0
LINE
8
BLACK
6
CONTINUOUS
10
67.9705
20
-77.1778
11
67.9564
21
-77.182
0
LINE
8
BLACK
6
CONTINUOUS
10
67.9564
20
-77.182
11
67.9418
21
-77.1835
0
LINE
8
BLACK
6
CONTINUOUS
10
67.9418
20
-77.1835
11
67.9271
21
-77.182
0
LINE
8
BLACK
6
CONTINUOUS
10
67.9271
20
-77.182
11
67.9131
21
-77.1778
0
LINE
8
BLACK
6
CONTINUOUS
10
67.9131
20
-77.1778
11
67.9001
21
-77.1709
0
LINE
8
BLACK
6
CONTINUOUS
10
67.9001
20
-77.1709
11
67.8887
21
-77.1615
0
LINE
8
BLACK
6
CONTINUOUS
10
67.8887
20
-77.1615
11
66.9518
21
-76.2246
0
LINE
8
BLACK
6
CONTINUOUS
10
66.9518
20
-76.2246
11
66.9425
21
-76.2132
0
LINE
8
BLACK
6
CONTINUOUS
10
66.9425
20
-76.2132
11
66.9356
21
-76.2003
0
LINE
8
BLACK
6
CONTINUOUS
10
66.9356
20
-76.2003
11
66.9313
21
-76.1862
0
LINE
8
BLACK
6
CONTINUOUS
10
66.9313
20
-76.1862
11
66.9299
21
-76.1716
0
LINE
8
BLACK
6
CONTINUOUS
10
66.9299
20
-76.1716
11
66.9313
21
-76.1569
0
LINE
8
BLACK
6
CONTINUOUS
10
66.9313
20
-76.1569
11
66.9356
21
-76.1429
0
LINE
8
BLACK
6
CONTINUOUS
10
66.9356
20
-76.1429
11
66.9425
21
-76.1299
0
LINE
8
BLACK
6
CONTINUOUS
10
66.9425
20
-76.1299
11
66.9518
21
-76.1185
0
LINE
8
BLACK
6
CONTINUOUS
10
66.9518
20
-76.1185
11
67.0579
21
-76.0125
0
LINE
8
BLACK
6
CONTINUOUS
10
67.0579
20
-76.0125
11
67.0693
21
-76.0031
0
LINE
8
BLACK
6
CONTINUOUS
10
67.0693
20
-76.0031
11
67.0822
21
-75.9962
0
LINE
8
BLACK
6
CONTINUOUS
10
67.0822
20
-75.9962
11
67.0963
21
-75.9919
0
LINE
8
BLACK
6
CONTINUOUS
10
67.0963
20
-75.9919
11
67.1109
21
-75.9905
0
LINE
8
BLACK
6
CONTINUOUS
10
67.1109
20
-75.9905
11
67.1256
21
-75.9919
0
LINE
8
BLACK
6
CONTINUOUS
10
52.1255
20
-75.9919
11
52.1396
21
-75.9962
0
LINE
8
BLACK
6
CONTINUOUS
10
52.1396
20
-75.9962
11
52.1526
21
-76.0031
0
LINE
8
BLACK
6
CONTINUOUS
10
52.1526
20
-76.0031
11
52.1639
21
-76.0125
0
LINE
8
BLACK
6
CONTINUOUS
10
52.1639
20
-76.0125
11
53.1009
21
-76.9494
0
LINE
8
BLACK
6
CONTINUOUS
10
53.1009
20
-76.9494
11
53.1102
21
-76.9608
0
LINE
8
BLACK
6
CONTINUOUS
10
53.1102
20
-76.9608
11
53.1171
21
-76.9737
0
LINE
8
BLACK
6
CONTINUOUS
10
53.1171
20
-76.9737
11
53.1214
21
-76.9878
0
LINE
8
BLACK
6
CONTINUOUS
10
53.1214
20
-76.9878
11
53.1228
21
-77.0024
0
LINE
8
BLACK
6
CONTINUOUS
10
53.1228
20
-77.0024
11
53.1214
21
-77.0171
0
LINE
8
BLACK
6
CONTINUOUS
10
53.1214
20
-77.0171
11
53.1171
21
-77.0311
0
LINE
8
BLACK
6
CONTINUOUS
10
53.1171
20
-77.0311
11
53.1102
21
-77.0441
0
LINE
8
BLACK
6
CONTINUOUS
10
53.1102
20
-77.0441
11
53.1009
21
-77.0555
0
LINE
8
BLACK
6
CONTINUOUS
10
53.1009
20
-77.0555
11
52.9948
21
-77.1615
0
LINE
8
BLACK
6
CONTINUOUS
10
52.9948
20
-77.1615
11
52.9834
21
-77.1709
0
LINE
8
BLACK
6
CONTINUOUS
10
52.9834
20
-77.1709
11
52.9705
21
-77.1778
0
LINE
8
BLACK
6
CONTINUOUS
10
52.9705
20
-77.1778
11
52.9564
21
-77.182
0
LINE
8
BLACK
6
CONTINUOUS
10
52.9564
20
-77.182
11
52.9418
21
-77.1835
0
LINE
8
BLACK
6
CONTINUOUS
10
52.9418
20
-77.1835
11
52.9271
21
-77.182
0
LINE
8
BLACK
6
CONTINUOUS
10
52.9271
20
-77.182
11
52.9131
21
-77.1778
0
LINE
8
BLACK
6
CONTINUOUS
10
52.9131
20
-77.1778
11
52.9001
21
-77.1709
0
LINE
8
BLACK
6
CONTINUOUS
10
52.9001
20
-77.1709
11
52.8887
21
-77.1615
0
LINE
8
BLACK
6
CONTINUOUS
10
52.8887
20
-77.1615
11
51.9518
21
-76.2246
0
LINE
8
BLACK
6
CONTINUOUS
10
51.9518
20
-76.2246
11
51.9425
21
-76.2132
0
LINE
8
BLACK
6
CONTINUOUS
10
51.9425
20
-76.2132
11
51.9356
21
-76.2003
0
LINE
8
BLACK
6
CONTINUOUS
10
51.9356
20
-76.2003
11
51.9313
21
-76.1862
0
LINE
8
BLACK
6
CONTINUOUS
10
51.9313
20
-76.1862
11
51.9298
21
-76.1716
0
LINE
8
BLACK
6
CONTINUOUS
10
51.9298
20
-76.1716
11
51.9313
21
-76.1569
0
LINE
8
BLACK
6
CONTINUOUS
10
51.9313
20
-76.1569
11
51.9356
21
-76.1429
0
LINE
8
BLACK
6
CONTINUOUS
10
51.9356
20
-76.1429
11
51.9425
21
-76.1299
0
LINE
8
BLACK
6
CONTINUOUS
10
51.9425
20
-76.1299
11
51.9518
21
-76.1185
0
LINE
8
BLACK
6
CONTINUOUS
10
51.9518
20
-76.1185
11
52.0579
21
-76.0125
0
LINE
8
BLACK
6
CONTINUOUS
10
52.0579
20
-76.0125
11
52.0692
21
-76.0031
0
LINE
8
BLACK
6
CONTINUOUS
10
52.0692
20
-76.0031
11
52.0822
21
-75.9962
0
LINE
8
BLACK
6
CONTINUOUS
10
52.0822
20
-75.9962
11
52.0963
21
-75.9919
0
LINE
8
BLACK
6
CONTINUOUS
10
52.0963
20
-75.9919
11
52.1109
21
-75.9905
0
LINE
8
BLACK
6
CONTINUOUS
10
52.1109
20
-75.9905
11
52.1255
21
-75.9919
0
LINE
8
BLACK
6
CONTINUOUS
10
59.9037
20
-75.9919
11
59.9178
21
-75.9962
0
LINE
8
BLACK
6
CONTINUOUS
10
59.9178
20
-75.9962
11
59.9308
21
-76.0031
0
LINE
8
BLACK
6
CONTINUOUS
10
59.9308
20
-76.0031
11
59.9421
21
-76.0125
0
LINE
8
BLACK
6
CONTINUOUS
10
59.9421
20
-76.0125
11
60.0482
21
-76.1185
0
LINE
8
BLACK
6
CONTINUOUS
10
60.0482
20
-76.1185
11
60.0575
21
-76.1299
0
LINE
8
BLACK
6
CONTINUOUS
10
60.0575
20
-76.1299
11
60.0644
21
-76.1429
0
LINE
8
BLACK
6
CONTINUOUS
10
60.0644
20
-76.1429
11
60.0687
21
-76.1569
0
LINE
8
BLACK
6
CONTINUOUS
10
60.0687
20
-76.1569
11
60.0702
21
-76.1716
0
LINE
8
BLACK
6
CONTINUOUS
10
60.0702
20
-76.1716
11
60.0687
21
-76.1862
0
LINE
8
BLACK
6
CONTINUOUS
10
60.0687
20
-76.1862
11
60.0644
21
-76.2003
0
LINE
8
BLACK
6
CONTINUOUS
10
60.0644
20
-76.2003
11
60.0575
21
-76.2132
0
LINE
8
BLACK
6
CONTINUOUS
10
60.0575
20
-76.2132
11
60.0482
21
-76.2246
0
LINE
8
BLACK
6
CONTINUOUS
10
60.0482
20
-76.2246
11
59.1113
21
-77.1615
0
LINE
8
BLACK
6
CONTINUOUS
10
59.1113
20
-77.1615
11
59.0999
21
-77.1709
0
LINE
8
BLACK
6
CONTINUOUS
10
59.0999
20
-77.1709
11
59.0869
21
-77.1778
0
LINE
8
BLACK
6
CONTINUOUS
10
59.0869
20
-77.1778
11
59.0729
21
-77.182
0
LINE
8
BLACK
6
CONTINUOUS
10
59.0729
20
-77.182
11
59.0582
21
-77.1835
0
LINE
8
BLACK
6
CONTINUOUS
10
59.0582
20
-77.1835
11
59.0436
21
-77.182
0
LINE
8
BLACK
6
CONTINUOUS
10
59.0436
20
-77.182
11
59.0295
21
-77.1778
0
LINE
8
BLACK
6
CONTINUOUS
10
59.0295
20
-77.1778
11
59.0166
21
-77.1709
0
LINE
8
BLACK
6
CONTINUOUS
10
59.0166
20
-77.1709
11
59.0052
21
-77.1615
0
LINE
8
BLACK
6
CONTINUOUS
10
59.0052
20
-77.1615
11
58.8991
21
-77.0555
0
LINE
8
BLACK
6
CONTINUOUS
10
58.8991
20
-77.0555
11
58.8898
21
-77.0441
0
LINE
8
BLACK
6
CONTINUOUS
10
58.8898
20
-77.0441
11
58.8829
21
-77.0311
0
LINE
8
BLACK
6
CONTINUOUS
10
58.8829
20
-77.0311
11
58.8786
21
-77.0171
0
LINE
8
BLACK
6
CONTINUOUS
10
58.8786
20
-77.0171
11
58.8772
21
-77.0024
0
LINE
8
BLACK
6
CONTINUOUS
10
58.8772
20
-77.0024
11
58.8786
21
-76.9878
0
LINE
8
BLACK
6
CONTINUOUS
10
58.8786
20
-76.9878
11
58.8829
21
-76.9737
0
LINE
8
BLACK
6
CONTINUOUS
10
58.8829
20
-76.9737
11
58.8898
21
-76.9608
0
LINE
8
BLACK
6
CONTINUOUS
10
58.8898
20
-76.9608
11
58.8991
21
-76.9494
0
LINE
8
BLACK
6
CONTINUOUS
10
58.8991
20
-76.9494
11
59.8361
21
-76.0125
0
LINE
8
BLACK
6
CONTINUOUS
10
59.8361
20
-76.0125
11
59.8474
21
-76.0031
0
LINE
8
BLACK
6
CONTINUOUS
10
59.8474
20
-76.0031
11
59.8604
21
-75.9962
0
LINE
8
BLACK
6
CONTINUOUS
10
59.8604
20
-75.9962
11
59.8745
21
-75.9919
0
LINE
8
BLACK
6
CONTINUOUS
10
59.8745
20
-75.9919
11
59.8891
21
-75.9905
0
LINE
8
BLACK
6
CONTINUOUS
10
59.8891
20
-75.9905
11
59.9037
21
-75.9919
0
LINE
8
BLACK
6
CONTINUOUS
10
52.4791
20
-75.6384
11
52.4932
21
-75.6427
0
LINE
8
BLACK
6
CONTINUOUS
10
52.4932
20
-75.6427
11
52.5061
21
-75.6496
0
LINE
8
BLACK
6
CONTINUOUS
10
52.5061
20
-75.6496
11
52.5175
21
-75.6589
0
LINE
8
BLACK
6
CONTINUOUS
10
52.5175
20
-75.6589
11
53.4544
21
-76.5958
0
LINE
8
BLACK
6
CONTINUOUS
10
53.4544
20
-76.5958
11
53.4637
21
-76.6072
0
LINE
8
BLACK
6
CONTINUOUS
10
53.4637
20
-76.6072
11
53.4707
21
-76.6202
0
LINE
8
BLACK
6
CONTINUOUS
10
53.4707
20
-76.6202
11
53.4749
21
-76.6342
0
LINE
8
BLACK
6
CONTINUOUS
10
53.4749
20
-76.6342
11
53.4764
21
-76.6489
0
LINE
8
BLACK
6
CONTINUOUS
10
53.4764
20
-76.6489
11
53.4749
21
-76.6635
0
LINE
8
BLACK
6
CONTINUOUS
10
53.4749
20
-76.6635
11
53.4707
21
-76.6776
0
LINE
8
BLACK
6
CONTINUOUS
10
53.4707
20
-76.6776
11
53.4637
21
-76.6905
0
LINE
8
BLACK
6
CONTINUOUS
10
53.4637
20
-76.6905
11
53.4544
21
-76.7019
0
LINE
8
BLACK
6
CONTINUOUS
10
53.4544
20
-76.7019
11
53.3483
21
-76.808
0
LINE
8
BLACK
6
CONTINUOUS
10
53.3483
20
-76.808
11
53.337
21
-76.8173
0
LINE
8
BLACK
6
CONTINUOUS
10
53.337
20
-76.8173
11
53.324
21
-76.8242
0
LINE
8
BLACK
6
CONTINUOUS
10
53.324
20
-76.8242
11
53.3099
21
-76.8285
0
LINE
8
BLACK
6
CONTINUOUS
10
53.3099
20
-76.8285
11
53.2953
21
-76.8299
0
LINE
8
BLACK
6
CONTINUOUS
10
53.2953
20
-76.8299
11
53.2807
21
-76.8285
0
LINE
8
BLACK
6
CONTINUOUS
10
53.2807
20
-76.8285
11
53.2666
21
-76.8242
0
LINE
8
BLACK
6
CONTINUOUS
10
53.2666
20
-76.8242
11
53.2536
21
-76.8173
0
LINE
8
BLACK
6
CONTINUOUS
10
53.2536
20
-76.8173
11
53.2423
21
-76.808
0
LINE
8
BLACK
6
CONTINUOUS
10
53.2423
20
-76.808
11
52.3054
21
-75.8711
0
LINE
8
BLACK
6
CONTINUOUS
10
52.3054
20
-75.8711
11
52.296
21
-75.8597
0
LINE
8
BLACK
6
CONTINUOUS
10
52.296
20
-75.8597
11
52.2891
21
-75.8467
0
LINE
8
BLACK
6
CONTINUOUS
10
52.2891
20
-75.8467
11
52.2848
21
-75.8327
0
LINE
8
BLACK
6
CONTINUOUS
10
52.2848
20
-75.8327
11
52.2834
21
-75.818
0
LINE
8
BLACK
6
CONTINUOUS
10
52.2834
20
-75.818
11
52.2848
21
-75.8034
0
LINE
8
BLACK
6
CONTINUOUS
10
52.2848
20
-75.8034
11
52.2891
21
-75.7893
0
LINE
8
BLACK
6
CONTINUOUS
10
52.2891
20
-75.7893
11
52.296
21
-75.7764
0
LINE
8
BLACK
6
CONTINUOUS
10
52.296
20
-75.7764
11
52.3054
21
-75.765
0
LINE
8
BLACK
6
CONTINUOUS
10
52.3054
20
-75.765
11
52.4114
21
-75.6589
0
LINE
8
BLACK
6
CONTINUOUS
10
52.4114
20
-75.6589
11
52.4228
21
-75.6496
0
LINE
8
BLACK
6
CONTINUOUS
10
52.4228
20
-75.6496
11
52.4358
21
-75.6427
0
LINE
8
BLACK
6
CONTINUOUS
10
52.4358
20
-75.6427
11
52.4498
21
-75.6384
0
LINE
8
BLACK
6
CONTINUOUS
10
52.4498
20
-75.6384
11
52.4645
21
-75.637
0
LINE
8
BLACK
6
CONTINUOUS
10
52.4645
20
-75.637
11
52.4791
21
-75.6384
0
LINE
8
BLACK
6
CONTINUOUS
10
59.5502
20
-75.6384
11
59.5642
21
-75.6427
0
LINE
8
BLACK
6
CONTINUOUS
10
59.5642
20
-75.6427
11
59.5772
21
-75.6496
0
LINE
8
BLACK
6
CONTINUOUS
10
59.5772
20
-75.6496
11
59.5886
21
-75.6589
0
LINE
8
BLACK
6
CONTINUOUS
10
59.5886
20
-75.6589
11
59.6946
21
-75.765
0
LINE
8
BLACK
6
CONTINUOUS
10
59.6946
20
-75.765
11
59.704
21
-75.7764
0
LINE
8
BLACK
6
CONTINUOUS
10
59.704
20
-75.7764
11
59.7109
21
-75.7893
0
LINE
8
BLACK
6
CONTINUOUS
10
59.7109
20
-75.7893
11
59.7152
21
-75.8034
0
LINE
8
BLACK
6
CONTINUOUS
10
59.7152
20
-75.8034
11
59.7166
21
-75.818
0
LINE
8
BLACK
6
CONTINUOUS
10
59.7166
20
-75.818
11
59.7152
21
-75.8327
0
LINE
8
BLACK
6
CONTINUOUS
10
59.7152
20
-75.8327
11
59.7109
21
-75.8467
0
LINE
8
BLACK
6
CONTINUOUS
10
59.7109
20
-75.8467
11
59.704
21
-75.8597
0
LINE
8
BLACK
6
CONTINUOUS
10
59.704
20
-75.8597
11
59.6946
21
-75.8711
0
LINE
8
BLACK
6
CONTINUOUS
10
59.6946
20
-75.8711
11
58.7577
21
-76.808
0
LINE
8
BLACK
6
CONTINUOUS
10
58.7577
20
-76.808
11
58.7464
21
-76.8173
0
LINE
8
BLACK
6
CONTINUOUS
10
58.7464
20
-76.8173
11
58.7334
21
-76.8242
0
LINE
8
BLACK
6
CONTINUOUS
10
58.7334
20
-76.8242
11
58.7193
21
-76.8285
0
LINE
8
BLACK
6
CONTINUOUS
10
58.7193
20
-76.8285
11
58.7047
21
-76.8299
0
LINE
8
BLACK
6
CONTINUOUS
10
58.7047
20
-76.8299
11
58.6901
21
-76.8285
0
LINE
8
BLACK
6
CONTINUOUS
10
58.6901
20
-76.8285
11
58.676
21
-76.8242
0
LINE
8
BLACK
6
CONTINUOUS
10
58.676
20
-76.8242
11
58.663
21
-76.8173
0
LINE
8
BLACK
6
CONTINUOUS
10
58.663
20
-76.8173
11
58.6517
21
-76.808
0
LINE
8
BLACK
6
CONTINUOUS
10
58.6517
20
-76.808
11
58.5456
21
-76.7019
0
LINE
8
BLACK
6
CONTINUOUS
10
58.5456
20
-76.7019
11
58.5363
21
-76.6905
0
LINE
8
BLACK
6
CONTINUOUS
10
58.5363
20
-76.6905
11
58.5293
21
-76.6776
0
LINE
8
BLACK
6
CONTINUOUS
10
58.5293
20
-76.6776
11
58.5251
21
-76.6635
0
LINE
8
BLACK
6
CONTINUOUS
10
58.5251
20
-76.6635
11
58.5236
21
-76.6489
0
LINE
8
BLACK
6
CONTINUOUS
10
58.5236
20
-76.6489
11
58.5251
21
-76.6342
0
LINE
8
BLACK
6
CONTINUOUS
10
58.5251
20
-76.6342
11
58.5293
21
-76.6202
0
LINE
8
BLACK
6
CONTINUOUS
10
58.5293
20
-76.6202
11
58.5363
21
-76.6072
0
LINE
8
BLACK
6
CONTINUOUS
10
58.5363
20
-76.6072
11
58.5456
21
-76.5958
0
LINE
8
BLACK
6
CONTINUOUS
10
58.5456
20
-76.5958
11
59.4825
21
-75.6589
0
LINE
8
BLACK
6
CONTINUOUS
10
59.4825
20
-75.6589
11
59.4939
21
-75.6496
0
LINE
8
BLACK
6
CONTINUOUS
10
59.4939
20
-75.6496
11
59.5068
21
-75.6427
0
LINE
8
BLACK
6
CONTINUOUS
10
59.5068
20
-75.6427
11
59.5209
21
-75.6384
0
LINE
8
BLACK
6
CONTINUOUS
10
59.5209
20
-75.6384
11
59.5355
21
-75.637
0
LINE
8
BLACK
6
CONTINUOUS
10
59.5355
20
-75.637
11
59.5502
21
-75.6384
0
LINE
8
BLACK
6
CONTINUOUS
10
74.5502
20
-75.6384
11
74.5643
21
-75.6427
0
LINE
8
BLACK
6
CONTINUOUS
10
74.5643
20
-75.6427
11
74.5772
21
-75.6496
0
LINE
8
BLACK
6
CONTINUOUS
10
74.5772
20
-75.6496
11
74.5886
21
-75.6589
0
LINE
8
BLACK
6
CONTINUOUS
10
74.5886
20
-75.6589
11
74.6947
21
-75.765
0
LINE
8
BLACK
6
CONTINUOUS
10
74.6947
20
-75.765
11
74.704
21
-75.7764
0
LINE
8
BLACK
6
CONTINUOUS
10
74.704
20
-75.7764
11
74.7109
21
-75.7893
0
LINE
8
BLACK
6
CONTINUOUS
10
74.7109
20
-75.7893
11
74.7152
21
-75.8034
0
LINE
8
BLACK
6
CONTINUOUS
10
74.7152
20
-75.8034
11
74.7166
21
-75.818
0
LINE
8
BLACK
6
CONTINUOUS
10
74.7166
20
-75.818
11
74.7152
21
-75.8327
0
LINE
8
BLACK
6
CONTINUOUS
10
74.7152
20
-75.8327
11
74.7109
21
-75.8467
0
LINE
8
BLACK
6
CONTINUOUS
10
74.7109
20
-75.8467
11
74.704
21
-75.8597
0
LINE
8
BLACK
6
CONTINUOUS
10
74.704
20
-75.8597
11
74.6947
21
-75.8711
0
LINE
8
BLACK
6
CONTINUOUS
10
74.6947
20
-75.8711
11
73.7577
21
-76.808
0
LINE
8
BLACK
6
CONTINUOUS
10
73.7577
20
-76.808
11
73.7464
21
-76.8173
0
LINE
8
BLACK
6
CONTINUOUS
10
73.7464
20
-76.8173
11
73.7334
21
-76.8242
0
LINE
8
BLACK
6
CONTINUOUS
10
73.7334
20
-76.8242
11
73.7193
21
-76.8285
0
LINE
8
BLACK
6
CONTINUOUS
10
73.7193
20
-76.8285
11
73.7047
21
-76.8299
0
LINE
8
BLACK
6
CONTINUOUS
10
73.7047
20
-76.8299
11
73.6901
21
-76.8285
0
LINE
8
BLACK
6
CONTINUOUS
10
73.6901
20
-76.8285
11
73.676
21
-76.8242
0
LINE
8
BLACK
6
CONTINUOUS
10
73.676
20
-76.8242
11
73.663
21
-76.8173
0
LINE
8
BLACK
6
CONTINUOUS
10
73.663
20
-76.8173
11
73.6517
21
-76.808
0
LINE
8
BLACK
6
CONTINUOUS
10
73.6517
20
-76.808
11
73.5456
21
-76.7019
0
LINE
8
BLACK
6
CONTINUOUS
10
73.5456
20
-76.7019
11
73.5363
21
-76.6905
0
LINE
8
BLACK
6
CONTINUOUS
10
73.5363
20
-76.6905
11
73.5293
21
-76.6776
0
LINE
8
BLACK
6
CONTINUOUS
10
73.5293
20
-76.6776
11
73.5251
21
-76.6635
0
LINE
8
BLACK
6
CONTINUOUS
10
73.5251
20
-76.6635
11
73.5236
21
-76.6489
0
LINE
8
BLACK
6
CONTINUOUS
10
73.5236
20
-76.6489
11
73.5251
21
-76.6342
0
LINE
8
BLACK
6
CONTINUOUS
10
73.5251
20
-76.6342
11
73.5293
21
-76.6202
0
LINE
8
BLACK
6
CONTINUOUS
10
73.5293
20
-76.6202
11
73.5363
21
-76.6072
0
LINE
8
BLACK
6
CONTINUOUS
10
73.5363
20
-76.6072
11
73.5456
21
-76.5958
0
LINE
8
BLACK
6
CONTINUOUS
10
73.5456
20
-76.5958
11
74.4825
21
-75.6589
0
LINE
8
BLACK
6
CONTINUOUS
10
74.4825
20
-75.6589
11
74.4939
21
-75.6496
0
LINE
8
BLACK
6
CONTINUOUS
10
74.4939
20
-75.6496
11
74.5069
21
-75.6427
0
LINE
8
BLACK
6
CONTINUOUS
10
74.5069
20
-75.6427
11
74.5209
21
-75.6384
0
LINE
8
BLACK
6
CONTINUOUS
10
74.5209
20
-75.6384
11
74.5356
21
-75.637
0
LINE
8
BLACK
6
CONTINUOUS
10
74.5356
20
-75.637
11
74.5502
21
-75.6384
0
LINE
8
BLACK
6
CONTINUOUS
10
67.4791
20
-75.6384
11
67.4932
21
-75.6427
0
LINE
8
BLACK
6
CONTINUOUS
10
67.4932
20
-75.6427
11
67.5062
21
-75.6496
0
LINE
8
BLACK
6
CONTINUOUS
10
67.5062
20
-75.6496
11
67.5175
21
-75.6589
0
LINE
8
BLACK
6
CONTINUOUS
10
67.5175
20
-75.6589
11
68.4544
21
-76.5958
0
LINE
8
BLACK
6
CONTINUOUS
10
68.4544
20
-76.5958
11
68.4638
21
-76.6072
0
LINE
8
BLACK
6
CONTINUOUS
10
68.4638
20
-76.6072
11
68.4707
21
-76.6202
0
LINE
8
BLACK
6
CONTINUOUS
10
68.4707
20
-76.6202
11
68.475
21
-76.6342
0
LINE
8
BLACK
6
CONTINUOUS
10
68.475
20
-76.6342
11
68.4764
21
-76.6489
0
LINE
8
BLACK
6
CONTINUOUS
10
68.4764
20
-76.6489
11
68.475
21
-76.6635
0
LINE
8
BLACK
6
CONTINUOUS
10
68.475
20
-76.6635
11
68.4707
21
-76.6776
0
LINE
8
BLACK
6
CONTINUOUS
10
68.4707
20
-76.6776
11
68.4638
21
-76.6905
0
LINE
8
BLACK
6
CONTINUOUS
10
68.4638
20
-76.6905
11
68.4544
21
-76.7019
0
LINE
8
BLACK
6
CONTINUOUS
10
68.4544
20
-76.7019
11
68.3484
21
-76.808
0
LINE
8
BLACK
6
CONTINUOUS
10
68.3484
20
-76.808
11
68.337
21
-76.8173
0
LINE
8
BLACK
6
CONTINUOUS
10
68.337
20
-76.8173
11
68.324
21
-76.8242
0
LINE
8
BLACK
6
CONTINUOUS
10
68.324
20
-76.8242
11
68.31
21
-76.8285
0
LINE
8
BLACK
6
CONTINUOUS
10
68.31
20
-76.8285
11
68.2953
21
-76.8299
0
LINE
8
BLACK
6
CONTINUOUS
10
68.2953
20
-76.8299
11
68.2807
21
-76.8285
0
LINE
8
BLACK
6
CONTINUOUS
10
68.2807
20
-76.8285
11
68.2666
21
-76.8242
0
LINE
8
BLACK
6
CONTINUOUS
10
68.2666
20
-76.8242
11
68.2537
21
-76.8173
0
LINE
8
BLACK
6
CONTINUOUS
10
68.2537
20
-76.8173
11
68.2423
21
-76.808
0
LINE
8
BLACK
6
CONTINUOUS
10
68.2423
20
-76.808
11
67.3054
21
-75.8711
0
LINE
8
BLACK
6
CONTINUOUS
10
67.3054
20
-75.8711
11
67.2961
21
-75.8597
0
LINE
8
BLACK
6
CONTINUOUS
10
67.2961
20
-75.8597
11
67.2891
21
-75.8467
0
LINE
8
BLACK
6
CONTINUOUS
10
67.2891
20
-75.8467
11
67.2849
21
-75.8327
0
LINE
8
BLACK
6
CONTINUOUS
10
67.2849
20
-75.8327
11
67.2834
21
-75.818
0
LINE
8
BLACK
6
CONTINUOUS
10
67.2834
20
-75.818
11
67.2849
21
-75.8034
0
LINE
8
BLACK
6
CONTINUOUS
10
67.2849
20
-75.8034
11
67.2891
21
-75.7893
0
LINE
8
BLACK
6
CONTINUOUS
10
67.2891
20
-75.7893
11
67.2961
21
-75.7764
0
LINE
8
BLACK
6
CONTINUOUS
10
67.2961
20
-75.7764
11
67.3054
21
-75.765
0
LINE
8
BLACK
6
CONTINUOUS
10
67.3054
20
-75.765
11
67.4115
21
-75.6589
0
LINE
8
BLACK
6
CONTINUOUS
10
67.4115
20
-75.6589
11
67.4228
21
-75.6496
0
LINE
8
BLACK
6
CONTINUOUS
10
67.4228
20
-75.6496
11
67.4358
21
-75.6427
0
LINE
8
BLACK
6
CONTINUOUS
10
67.4358
20
-75.6427
11
67.4499
21
-75.6384
0
LINE
8
BLACK
6
CONTINUOUS
10
67.4499
20
-75.6384
11
67.4645
21
-75.637
0
LINE
8
BLACK
6
CONTINUOUS
10
67.4645
20
-75.637
11
67.4791
21
-75.6384
0
LINE
8
BLACK
6
CONTINUOUS
10
74.1966
20
-75.2848
11
74.2107
21
-75.2891
0
LINE
8
BLACK
6
CONTINUOUS
10
74.2107
20
-75.2891
11
74.2237
21
-75.296
0
LINE
8
BLACK
6
CONTINUOUS
10
74.2237
20
-75.296
11
74.235
21
-75.3054
0
LINE
8
BLACK
6
CONTINUOUS
10
74.235
20
-75.3054
11
74.3411
21
-75.4114
0
LINE
8
BLACK
6
CONTINUOUS
10
74.3411
20
-75.4114
11
74.3504
21
-75.4228
0
LINE
8
BLACK
6
CONTINUOUS
10
74.3504
20
-75.4228
11
74.3574
21
-75.4358
0
LINE
8
BLACK
6
CONTINUOUS
10
74.3574
20
-75.4358
11
74.3616
21
-75.4498
0
LINE
8
BLACK
6
CONTINUOUS
10
74.3616
20
-75.4498
11
74.3631
21
-75.4645
0
LINE
8
BLACK
6
CONTINUOUS
10
74.3631
20
-75.4645
11
74.3616
21
-75.4791
0
LINE
8
BLACK
6
CONTINUOUS
10
74.3616
20
-75.4791
11
74.3574
21
-75.4932
0
LINE
8
BLACK
6
CONTINUOUS
10
74.3574
20
-75.4932
11
74.3504
21
-75.5061
0
LINE
8
BLACK
6
CONTINUOUS
10
74.3504
20
-75.5061
11
74.3411
21
-75.5175
0
LINE
8
BLACK
6
CONTINUOUS
10
74.3411
20
-75.5175
11
73.4042
21
-76.4544
0
LINE
8
BLACK
6
CONTINUOUS
10
73.4042
20
-76.4544
11
73.3928
21
-76.4637
0
LINE
8
BLACK
6
CONTINUOUS
10
73.3928
20
-76.4637
11
73.3798
21
-76.4707
0
LINE
8
BLACK
6
CONTINUOUS
10
73.3798
20
-76.4707
11
73.3658
21
-76.4749
0
LINE
8
BLACK
6
CONTINUOUS
10
73.3658
20
-76.4749
11
73.3511
21
-76.4764
0
LINE
8
BLACK
6
CONTINUOUS
10
73.3511
20
-76.4764
11
73.3365
21
-76.4749
0
LINE
8
BLACK
6
CONTINUOUS
10
73.3365
20
-76.4749
11
73.3224
21
-76.4707
0
LINE
8
BLACK
6
CONTINUOUS
10
73.3224
20
-76.4707
11
73.3095
21
-76.4637
0
LINE
8
BLACK
6
CONTINUOUS
10
73.3095
20
-76.4637
11
73.2981
21
-76.4544
0
LINE
8
BLACK
6
CONTINUOUS
10
73.2981
20
-76.4544
11
73.192
21
-76.3483
0
LINE
8
BLACK
6
CONTINUOUS
10
73.192
20
-76.3483
11
73.1827
21
-76.337
0
LINE
8
BLACK
6
CONTINUOUS
10
73.1827
20
-76.337
11
73.1758
21
-76.324
0
LINE
8
BLACK
6
CONTINUOUS
10
73.1758
20
-76.324
11
73.1715
21
-76.3099
0
LINE
8
BLACK
6
CONTINUOUS
10
73.1715
20
-76.3099
11
73.1701
21
-76.2953
0
LINE
8
BLACK
6
CONTINUOUS
10
73.1701
20
-76.2953
11
73.1715
21
-76.2807
0
LINE
8
BLACK
6
CONTINUOUS
10
73.1715
20
-76.2807
11
73.1758
21
-76.2666
0
LINE
8
BLACK
6
CONTINUOUS
10
73.1758
20
-76.2666
11
73.1827
21
-76.2536
0
LINE
8
BLACK
6
CONTINUOUS
10
73.1827
20
-76.2536
11
73.192
21
-76.2423
0
LINE
8
BLACK
6
CONTINUOUS
10
73.192
20
-76.2423
11
74.129
21
-75.3054
0
LINE
8
BLACK
6
CONTINUOUS
10
74.129
20
-75.3054
11
74.1403
21
-75.296
0
LINE
8
BLACK
6
CONTINUOUS
10
74.1403
20
-75.296
11
74.1533
21
-75.2891
0
LINE
8
BLACK
6
CONTINUOUS
10
74.1533
20
-75.2891
11
74.1674
21
-75.2848
0
LINE
8
BLACK
6
CONTINUOUS
10
74.1674
20
-75.2848
11
74.182
21
-75.2834
0
LINE
8
BLACK
6
CONTINUOUS
10
74.182
20
-75.2834
11
74.1966
21
-75.2848
0
LINE
8
BLACK
6
CONTINUOUS
10
67.8327
20
-75.2848
11
67.8467
21
-75.2891
0
LINE
8
BLACK
6
CONTINUOUS
10
67.8467
20
-75.2891
11
67.8597
21
-75.296
0
LINE
8
BLACK
6
CONTINUOUS
10
67.8597
20
-75.296
11
67.8711
21
-75.3054
0
LINE
8
BLACK
6
CONTINUOUS
10
67.8711
20
-75.3054
11
68.808
21
-76.2423
0
LINE
8
BLACK
6
CONTINUOUS
10
68.808
20
-76.2423
11
68.8173
21
-76.2536
0
LINE
8
BLACK
6
CONTINUOUS
10
68.8173
20
-76.2536
11
68.8242
21
-76.2666
0
LINE
8
BLACK
6
CONTINUOUS
10
68.8242
20
-76.2666
11
68.8285
21
-76.2807
0
LINE
8
BLACK
6
CONTINUOUS
10
68.8285
20
-76.2807
11
68.83
21
-76.2953
0
LINE
8
BLACK
6
CONTINUOUS
10
68.83
20
-76.2953
11
68.8285
21
-76.3099
0
LINE
8
BLACK
6
CONTINUOUS
10
68.8285
20
-76.3099
11
68.8242
21
-76.324
0
LINE
8
BLACK
6
CONTINUOUS
10
68.8242
20
-76.324
11
68.8173
21
-76.337
0
LINE
8
BLACK
6
CONTINUOUS
10
68.8173
20
-76.337
11
68.808
21
-76.3483
0
LINE
8
BLACK
6
CONTINUOUS
10
68.808
20
-76.3483
11
68.7019
21
-76.4544
0
LINE
8
BLACK
6
CONTINUOUS
10
68.7019
20
-76.4544
11
68.6906
21
-76.4637
0
LINE
8
BLACK
6
CONTINUOUS
10
68.6906
20
-76.4637
11
68.6776
21
-76.4707
0
LINE
8
BLACK
6
CONTINUOUS
10
68.6776
20
-76.4707
11
68.6635
21
-76.4749
0
LINE
8
BLACK
6
CONTINUOUS
10
68.6635
20
-76.4749
11
68.6489
21
-76.4764
0
LINE
8
BLACK
6
CONTINUOUS
10
68.6489
20
-76.4764
11
68.6343
21
-76.4749
0
LINE
8
BLACK
6
CONTINUOUS
10
68.6343
20
-76.4749
11
68.6202
21
-76.4707
0
LINE
8
BLACK
6
CONTINUOUS
10
68.6202
20
-76.4707
11
68.6072
21
-76.4637
0
LINE
8
BLACK
6
CONTINUOUS
10
68.6072
20
-76.4637
11
68.5959
21
-76.4544
0
LINE
8
BLACK
6
CONTINUOUS
10
68.5959
20
-76.4544
11
67.6589
21
-75.5175
0
LINE
8
BLACK
6
CONTINUOUS
10
67.6589
20
-75.5175
11
67.6496
21
-75.5061
0
LINE
8
BLACK
6
CONTINUOUS
10
67.6496
20
-75.5061
11
67.6427
21
-75.4932
0
LINE
8
BLACK
6
CONTINUOUS
10
67.6427
20
-75.4932
11
67.6384
21
-75.4791
0
LINE
8
BLACK
6
CONTINUOUS
10
67.6384
20
-75.4791
11
67.637
21
-75.4645
0
LINE
8
BLACK
6
CONTINUOUS
10
67.637
20
-75.4645
11
67.6384
21
-75.4498
0
LINE
8
BLACK
6
CONTINUOUS
10
67.6384
20
-75.4498
11
67.6427
21
-75.4358
0
LINE
8
BLACK
6
CONTINUOUS
10
67.6427
20
-75.4358
11
67.6496
21
-75.4228
0
LINE
8
BLACK
6
CONTINUOUS
10
67.6496
20
-75.4228
11
67.6589
21
-75.4114
0
LINE
8
BLACK
6
CONTINUOUS
10
67.6589
20
-75.4114
11
67.765
21
-75.3054
0
LINE
8
BLACK
6
CONTINUOUS
10
67.765
20
-75.3054
11
67.7764
21
-75.296
0
LINE
8
BLACK
6
CONTINUOUS
10
67.7764
20
-75.296
11
67.7893
21
-75.2891
0
LINE
8
BLACK
6
CONTINUOUS
10
67.7893
20
-75.2891
11
67.8034
21
-75.2848
0
LINE
8
BLACK
6
CONTINUOUS
10
67.8034
20
-75.2848
11
67.818
21
-75.2834
0
LINE
8
BLACK
6
CONTINUOUS
10
67.818
20
-75.2834
11
67.8327
21
-75.2848
0
LINE
8
BLACK
6
CONTINUOUS
10
59.1966
20
-75.2848
11
59.2107
21
-75.2891
0
LINE
8
BLACK
6
CONTINUOUS
10
59.2107
20
-75.2891
11
59.2236
21
-75.296
0
LINE
8
BLACK
6
CONTINUOUS
10
59.2236
20
-75.296
11
59.235
21
-75.3054
0
LINE
8
BLACK
6
CONTINUOUS
10
59.235
20
-75.3054
11
59.3411
21
-75.4114
0
LINE
8
BLACK
6
CONTINUOUS
10
59.3411
20
-75.4114
11
59.3504
21
-75.4228
0
LINE
8
BLACK
6
CONTINUOUS
10
59.3504
20
-75.4228
11
59.3573
21
-75.4358
0
LINE
8
BLACK
6
CONTINUOUS
10
59.3573
20
-75.4358
11
59.3616
21
-75.4498
0
LINE
8
BLACK
6
CONTINUOUS
10
59.3616
20
-75.4498
11
59.363
21
-75.4645
0
LINE
8
BLACK
6
CONTINUOUS
10
59.363
20
-75.4645
11
59.3616
21
-75.4791
0
LINE
8
BLACK
6
CONTINUOUS
10
59.3616
20
-75.4791
11
59.3573
21
-75.4932
0
LINE
8
BLACK
6
CONTINUOUS
10
59.3573
20
-75.4932
11
59.3504
21
-75.5061
0
LINE
8
BLACK
6
CONTINUOUS
10
59.3504
20
-75.5061
11
59.3411
21
-75.5175
0
LINE
8
BLACK
6
CONTINUOUS
10
59.3411
20
-75.5175
11
58.4042
21
-76.4544
0
LINE
8
BLACK
6
CONTINUOUS
10
58.4042
20
-76.4544
11
58.3928
21
-76.4637
0
LINE
8
BLACK
6
CONTINUOUS
10
58.3928
20
-76.4637
11
58.3798
21
-76.4707
0
LINE
8
BLACK
6
CONTINUOUS
10
58.3798
20
-76.4707
11
58.3658
21
-76.4749
0
LINE
8
BLACK
6
CONTINUOUS
10
58.3658
20
-76.4749
11
58.3511
21
-76.4764
0
LINE
8
BLACK
6
CONTINUOUS
10
58.3511
20
-76.4764
11
58.3365
21
-76.4749
0
LINE
8
BLACK
6
CONTINUOUS
10
58.3365
20
-76.4749
11
58.3224
21
-76.4707
0
LINE
8
BLACK
6
CONTINUOUS
10
58.3224
20
-76.4707
11
58.3095
21
-76.4637
0
LINE
8
BLACK
6
CONTINUOUS
10
58.3095
20
-76.4637
11
58.2981
21
-76.4544
0
LINE
8
BLACK
6
CONTINUOUS
10
58.2981
20
-76.4544
11
58.192
21
-76.3483
0
LINE
8
BLACK
6
CONTINUOUS
10
58.192
20
-76.3483
11
58.1827
21
-76.337
0
LINE
8
BLACK
6
CONTINUOUS
10
58.1827
20
-76.337
11
58.1758
21
-76.324
0
LINE
8
BLACK
6
CONTINUOUS
10
58.1758
20
-76.324
11
58.1715
21
-76.3099
0
LINE
8
BLACK
6
CONTINUOUS
10
58.1715
20
-76.3099
11
58.1701
21
-76.2953
0
LINE
8
BLACK
6
CONTINUOUS
10
58.1701
20
-76.2953
11
58.1715
21
-76.2807
0
LINE
8
BLACK
6
CONTINUOUS
10
58.1715
20
-76.2807
11
58.1758
21
-76.2666
0
LINE
8
BLACK
6
CONTINUOUS
10
58.1758
20
-76.2666
11
58.1827
21
-76.2536
0
LINE
8
BLACK
6
CONTINUOUS
10
58.1827
20
-76.2536
11
58.192
21
-76.2423
0
LINE
8
BLACK
6
CONTINUOUS
10
58.192
20
-76.2423
11
59.1289
21
-75.3054
0
LINE
8
BLACK
6
CONTINUOUS
10
59.1289
20
-75.3054
11
59.1403
21
-75.296
0
LINE
8
BLACK
6
CONTINUOUS
10
59.1403
20
-75.296
11
59.1533
21
-75.2891
0
LINE
8
BLACK
6
CONTINUOUS
10
59.1533
20
-75.2891
11
59.1673
21
-75.2848
0
LINE
8
BLACK
6
CONTINUOUS
10
59.1673
20
-75.2848
11
59.182
21
-75.2834
0
LINE
8
BLACK
6
CONTINUOUS
10
59.182
20
-75.2834
11
59.1966
21
-75.2848
0
LINE
8
BLACK
6
CONTINUOUS
10
52.8327
20
-75.2848
11
52.8467
21
-75.2891
0
LINE
8
BLACK
6
CONTINUOUS
10
52.8467
20
-75.2891
11
52.8597
21
-75.296
0
LINE
8
BLACK
6
CONTINUOUS
10
52.8597
20
-75.296
11
52.8711
21
-75.3054
0
LINE
8
BLACK
6
CONTINUOUS
10
52.8711
20
-75.3054
11
53.808
21
-76.2423
0
LINE
8
BLACK
6
CONTINUOUS
10
53.808
20
-76.2423
11
53.8173
21
-76.2536
0
LINE
8
BLACK
6
CONTINUOUS
10
53.8173
20
-76.2536
11
53.8242
21
-76.2666
0
LINE
8
BLACK
6
CONTINUOUS
10
53.8242
20
-76.2666
11
53.8285
21
-76.2807
0
LINE
8
BLACK
6
CONTINUOUS
10
53.8285
20
-76.2807
11
53.8299
21
-76.2953
0
LINE
8
BLACK
6
CONTINUOUS
10
53.8299
20
-76.2953
11
53.8285
21
-76.3099
0
LINE
8
BLACK
6
CONTINUOUS
10
53.8285
20
-76.3099
11
53.8242
21
-76.324
0
LINE
8
BLACK
6
CONTINUOUS
10
53.8242
20
-76.324
11
53.8173
21
-76.337
0
LINE
8
BLACK
6
CONTINUOUS
10
53.8173
20
-76.337
11
53.808
21
-76.3483
0
LINE
8
BLACK
6
CONTINUOUS
10
53.808
20
-76.3483
11
53.7019
21
-76.4544
0
LINE
8
BLACK
6
CONTINUOUS
10
53.7019
20
-76.4544
11
53.6905
21
-76.4637
0
LINE
8
BLACK
6
CONTINUOUS
10
53.6905
20
-76.4637
11
53.6776
21
-76.4707
0
LINE
8
BLACK
6
CONTINUOUS
10
53.6776
20
-76.4707
11
53.6635
21
-76.4749
0
LINE
8
BLACK
6
CONTINUOUS
10
53.6635
20
-76.4749
11
53.6489
21
-76.4764
0
LINE
8
BLACK
6
CONTINUOUS
10
53.6489
20
-76.4764
11
53.6342
21
-76.4749
0
LINE
8
BLACK
6
CONTINUOUS
10
53.6342
20
-76.4749
11
53.6202
21
-76.4707
0
LINE
8
BLACK
6
CONTINUOUS
10
53.6202
20
-76.4707
11
53.6072
21
-76.4637
0
LINE
8
BLACK
6
CONTINUOUS
10
53.6072
20
-76.4637
11
53.5958
21
-76.4544
0
LINE
8
BLACK
6
CONTINUOUS
10
53.5958
20
-76.4544
11
52.6589
21
-75.5175
0
LINE
8
BLACK
6
CONTINUOUS
10
52.6589
20
-75.5175
11
52.6496
21
-75.5061
0
LINE
8
BLACK
6
CONTINUOUS
10
52.6496
20
-75.5061
11
52.6427
21
-75.4932
0
LINE
8
BLACK
6
CONTINUOUS
10
52.6427
20
-75.4932
11
52.6384
21
-75.4791
0
LINE
8
BLACK
6
CONTINUOUS
10
52.6384
20
-75.4791
11
52.637
21
-75.4645
0
LINE
8
BLACK
6
CONTINUOUS
10
52.637
20
-75.4645
11
52.6384
21
-75.4498
0
LINE
8
BLACK
6
CONTINUOUS
10
52.6384
20
-75.4498
11
52.6427
21
-75.4358
0
LINE
8
BLACK
6
CONTINUOUS
10
52.6427
20
-75.4358
11
52.6496
21
-75.4228
0
LINE
8
BLACK
6
CONTINUOUS
10
52.6496
20
-75.4228
11
52.6589
21
-75.4114
0
LINE
8
BLACK
6
CONTINUOUS
10
52.6589
20
-75.4114
11
52.765
21
-75.3054
0
LINE
8
BLACK
6
CONTINUOUS
10
52.765
20
-75.3054
11
52.7764
21
-75.296
0
LINE
8
BLACK
6
CONTINUOUS
10
52.7764
20
-75.296
11
52.7893
21
-75.2891
0
LINE
8
BLACK
6
CONTINUOUS
10
52.7893
20
-75.2891
11
52.8034
21
-75.2848
0
LINE
8
BLACK
6
CONTINUOUS
10
52.8034
20
-75.2848
11
52.818
21
-75.2834
0
LINE
8
BLACK
6
CONTINUOUS
10
52.818
20
-75.2834
11
52.8327
21
-75.2848
0
LINE
8
BLACK
6
CONTINUOUS
10
68.1862
20
-74.9313
11
68.2003
21
-74.9356
0
LINE
8
BLACK
6
CONTINUOUS
10
68.2003
20
-74.9356
11
68.2133
21
-74.9425
0
LINE
8
BLACK
6
CONTINUOUS
10
68.2133
20
-74.9425
11
68.2246
21
-74.9518
0
LINE
8
BLACK
6
CONTINUOUS
10
68.2246
20
-74.9518
11
69.1615
21
-75.8887
0
LINE
8
BLACK
6
CONTINUOUS
10
69.1615
20
-75.8887
11
69.1709
21
-75.9001
0
LINE
8
BLACK
6
CONTINUOUS
10
69.1709
20
-75.9001
11
69.1778
21
-75.9131
0
LINE
8
BLACK
6
CONTINUOUS
10
69.1778
20
-75.9131
11
69.1821
21
-75.9271
0
LINE
8
BLACK
6
CONTINUOUS
10
69.1821
20
-75.9271
11
69.1835
21
-75.9418
0
LINE
8
BLACK
6
CONTINUOUS
10
69.1835
20
-75.9418
11
69.1821
21
-75.9564
0
LINE
8
BLACK
6
CONTINUOUS
10
69.1821
20
-75.9564
11
69.1778
21
-75.9705
0
LINE
8
BLACK
6
CONTINUOUS
10
69.1778
20
-75.9705
11
69.1709
21
-75.9834
0
LINE
8
BLACK
6
CONTINUOUS
10
69.1709
20
-75.9834
11
69.1615
21
-75.9948
0
LINE
8
BLACK
6
CONTINUOUS
10
69.1615
20
-75.9948
11
69.0555
21
-76.1009
0
LINE
8
BLACK
6
CONTINUOUS
10
69.0555
20
-76.1009
11
69.0441
21
-76.1102
0
LINE
8
BLACK
6
CONTINUOUS
10
69.0441
20
-76.1102
11
69.0311
21
-76.1171
0
LINE
8
BLACK
6
CONTINUOUS
10
69.0311
20
-76.1171
11
69.0171
21
-76.1214
0
LINE
8
BLACK
6
CONTINUOUS
10
69.0171
20
-76.1214
11
69.0024
21
-76.1228
0
LINE
8
BLACK
6
CONTINUOUS
10
69.0024
20
-76.1228
11
68.9878
21
-76.1214
0
LINE
8
BLACK
6
CONTINUOUS
10
68.9878
20
-76.1214
11
68.9737
21
-76.1171
0
LINE
8
BLACK
6
CONTINUOUS
10
68.9737
20
-76.1171
11
68.9608
21
-76.1102
0
LINE
8
BLACK
6
CONTINUOUS
10
68.9608
20
-76.1102
11
68.9494
21
-76.1009
0
LINE
8
BLACK
6
CONTINUOUS
10
68.9494
20
-76.1009
11
68.0125
21
-75.1639
0
LINE
8
BLACK
6
CONTINUOUS
10
68.0125
20
-75.1639
11
68.0032
21
-75.1526
0
LINE
8
BLACK
6
CONTINUOUS
10
68.0032
20
-75.1526
11
67.9962
21
-75.1396
0
LINE
8
BLACK
6
CONTINUOUS
10
67.9962
20
-75.1396
11
67.992
21
-75.1255
0
LINE
8
BLACK
6
CONTINUOUS
10
67.992
20
-75.1255
11
67.9905
21
-75.1109
0
LINE
8
BLACK
6
CONTINUOUS
10
67.9905
20
-75.1109
11
67.992
21
-75.0963
0
LINE
8
BLACK
6
CONTINUOUS
10
67.992
20
-75.0963
11
67.9962
21
-75.0822
0
LINE
8
BLACK
6
CONTINUOUS
10
67.9962
20
-75.0822
11
68.0032
21
-75.0692
0
LINE
8
BLACK
6
CONTINUOUS
10
68.0032
20
-75.0692
11
68.0125
21
-75.0579
0
LINE
8
BLACK
6
CONTINUOUS
10
68.0125
20
-75.0579
11
68.1186
21
-74.9518
0
LINE
8
BLACK
6
CONTINUOUS
10
68.1186
20
-74.9518
11
68.1299
21
-74.9425
0
LINE
8
BLACK
6
CONTINUOUS
10
68.1299
20
-74.9425
11
68.1429
21
-74.9356
0
LINE
8
BLACK
6
CONTINUOUS
10
68.1429
20
-74.9356
11
68.157
21
-74.9313
0
LINE
8
BLACK
6
CONTINUOUS
10
68.157
20
-74.9313
11
68.1716
21
-74.9298
0
LINE
8
BLACK
6
CONTINUOUS
10
68.1716
20
-74.9298
11
68.1862
21
-74.9313
0
LINE
8
BLACK
6
CONTINUOUS
10
73.8431
20
-74.9313
11
73.8571
21
-74.9356
0
LINE
8
BLACK
6
CONTINUOUS
10
73.8571
20
-74.9356
11
73.8701
21
-74.9425
0
LINE
8
BLACK
6
CONTINUOUS
10
73.8701
20
-74.9425
11
73.8815
21
-74.9518
0
LINE
8
BLACK
6
CONTINUOUS
10
73.8815
20
-74.9518
11
73.9875
21
-75.0579
0
LINE
8
BLACK
6
CONTINUOUS
10
73.9875
20
-75.0579
11
73.9969
21
-75.0692
0
LINE
8
BLACK
6
CONTINUOUS
10
73.9969
20
-75.0692
11
74.0038
21
-75.0822
0
LINE
8
BLACK
6
CONTINUOUS
10
74.0038
20
-75.0822
11
74.0081
21
-75.0963
0
LINE
8
BLACK
6
CONTINUOUS
10
74.0081
20
-75.0963
11
74.0095
21
-75.1109
0
LINE
8
BLACK
6
CONTINUOUS
10
74.0095
20
-75.1109
11
74.0081
21
-75.1255
0
LINE
8
BLACK
6
CONTINUOUS
10
74.0081
20
-75.1255
11
74.0038
21
-75.1396
0
LINE
8
BLACK
6
CONTINUOUS
10
74.0038
20
-75.1396
11
73.9969
21
-75.1526
0
LINE
8
BLACK
6
CONTINUOUS
10
73.9969
20
-75.1526
11
73.9875
21
-75.1639
0
LINE
8
BLACK
6
CONTINUOUS
10
73.9875
20
-75.1639
11
73.0506
21
-76.1009
0
LINE
8
BLACK
6
CONTINUOUS
10
73.0506
20
-76.1009
11
73.0393
21
-76.1102
0
LINE
8
BLACK
6
CONTINUOUS
10
73.0393
20
-76.1102
11
73.0263
21
-76.1171
0
LINE
8
BLACK
6
CONTINUOUS
10
73.0263
20
-76.1171
11
73.0122
21
-76.1214
0
LINE
8
BLACK
6
CONTINUOUS
10
73.0122
20
-76.1214
11
72.9976
21
-76.1228
0
LINE
8
BLACK
6
CONTINUOUS
10
72.9976
20
-76.1228
11
72.983
21
-76.1214
0
LINE
8
BLACK
6
CONTINUOUS
10
72.983
20
-76.1214
11
72.9689
21
-76.1171
0
LINE
8
BLACK
6
CONTINUOUS
10
72.9689
20
-76.1171
11
72.9559
21
-76.1102
0
LINE
8
BLACK
6
CONTINUOUS
10
72.9559
20
-76.1102
11
72.9446
21
-76.1009
0
LINE
8
BLACK
6
CONTINUOUS
10
72.9446
20
-76.1009
11
72.8385
21
-75.9948
0
LINE
8
BLACK
6
CONTINUOUS
10
72.8385
20
-75.9948
11
72.8292
21
-75.9834
0
LINE
8
BLACK
6
CONTINUOUS
10
72.8292
20
-75.9834
11
72.8222
21
-75.9705
0
LINE
8
BLACK
6
CONTINUOUS
10
72.8222
20
-75.9705
11
72.818
21
-75.9564
0
LINE
8
BLACK
6
CONTINUOUS
10
72.818
20
-75.9564
11
72.8165
21
-75.9418
0
LINE
8
BLACK
6
CONTINUOUS
10
72.8165
20
-75.9418
11
72.818
21
-75.9271
0
LINE
8
BLACK
6
CONTINUOUS
10
72.818
20
-75.9271
11
72.8222
21
-75.9131
0
LINE
8
BLACK
6
CONTINUOUS
10
72.8222
20
-75.9131
11
72.8292
21
-75.9001
0
LINE
8
BLACK
6
CONTINUOUS
10
72.8292
20
-75.9001
11
72.8385
21
-75.8887
0
LINE
8
BLACK
6
CONTINUOUS
10
72.8385
20
-75.8887
11
73.7754
21
-74.9518
0
LINE
8
BLACK
6
CONTINUOUS
10
73.7754
20
-74.9518
11
73.7868
21
-74.9425
0
LINE
8
BLACK
6
CONTINUOUS
10
73.7868
20
-74.9425
11
73.7997
21
-74.9356
0
LINE
8
BLACK
6
CONTINUOUS
10
73.7997
20
-74.9356
11
73.8138
21
-74.9313
0
LINE
8
BLACK
6
CONTINUOUS
10
73.8138
20
-74.9313
11
73.8284
21
-74.9298
0
LINE
8
BLACK
6
CONTINUOUS
10
73.8284
20
-74.9298
11
73.8431
21
-74.9313
0
LINE
8
BLACK
6
CONTINUOUS
10
58.8431
20
-74.9313
11
58.8571
21
-74.9356
0
LINE
8
BLACK
6
CONTINUOUS
10
58.8571
20
-74.9356
11
58.8701
21
-74.9425
0
LINE
8
BLACK
6
CONTINUOUS
10
58.8701
20
-74.9425
11
58.8815
21
-74.9518
0
LINE
8
BLACK
6
CONTINUOUS
10
58.8815
20
-74.9518
11
58.9875
21
-75.0579
0
LINE
8
BLACK
6
CONTINUOUS
10
58.9875
20
-75.0579
11
58.9969
21
-75.0692
0
LINE
8
BLACK
6
CONTINUOUS
10
58.9969
20
-75.0692
11
59.0038
21
-75.0822
0
LINE
8
BLACK
6
CONTINUOUS
10
59.0038
20
-75.0822
11
59.0081
21
-75.0963
0
LINE
8
BLACK
6
CONTINUOUS
10
59.0081
20
-75.0963
11
59.0095
21
-75.1109
0
LINE
8
BLACK
6
CONTINUOUS
10
59.0095
20
-75.1109
11
59.0081
21
-75.1255
0
LINE
8
BLACK
6
CONTINUOUS
10
59.0081
20
-75.1255
11
59.0038
21
-75.1396
0
LINE
8
BLACK
6
CONTINUOUS
10
59.0038
20
-75.1396
11
58.9969
21
-75.1526
0
LINE
8
BLACK
6
CONTINUOUS
10
58.9969
20
-75.1526
11
58.9875
21
-75.1639
0
LINE
8
BLACK
6
CONTINUOUS
10
58.9875
20
-75.1639
11
58.0506
21
-76.1009
0
LINE
8
BLACK
6
CONTINUOUS
10
58.0506
20
-76.1009
11
58.0392
21
-76.1102
0
LINE
8
BLACK
6
CONTINUOUS
10
58.0392
20
-76.1102
11
58.0263
21
-76.1171
0
LINE
8
BLACK
6
CONTINUOUS
10
58.0263
20
-76.1171
11
58.0122
21
-76.1214
0
LINE
8
BLACK
6
CONTINUOUS
10
58.0122
20
-76.1214
11
57.9976
21
-76.1228
0
LINE
8
BLACK
6
CONTINUOUS
10
57.9976
20
-76.1228
11
57.9829
21
-76.1214
0
LINE
8
BLACK
6
CONTINUOUS
10
57.9829
20
-76.1214
11
57.9689
21
-76.1171
0
LINE
8
BLACK
6
CONTINUOUS
10
57.9689
20
-76.1171
11
57.9559
21
-76.1102
0
LINE
8
BLACK
6
CONTINUOUS
10
57.9559
20
-76.1102
11
57.9445
21
-76.1009
0
LINE
8
BLACK
6
CONTINUOUS
10
57.9445
20
-76.1009
11
57.8385
21
-75.9948
0
LINE
8
BLACK
6
CONTINUOUS
10
57.8385
20
-75.9948
11
57.8292
21
-75.9834
0
LINE
8
BLACK
6
CONTINUOUS
10
57.8292
20
-75.9834
11
57.8222
21
-75.9705
0
LINE
8
BLACK
6
CONTINUOUS
10
57.8222
20
-75.9705
11
57.818
21
-75.9564
0
LINE
8
BLACK
6
CONTINUOUS
10
57.818
20
-75.9564
11
57.8165
21
-75.9418
0
LINE
8
BLACK
6
CONTINUOUS
10
57.8165
20
-75.9418
11
57.818
21
-75.9271
0
LINE
8
BLACK
6
CONTINUOUS
10
57.818
20
-75.9271
11
57.8222
21
-75.9131
0
LINE
8
BLACK
6
CONTINUOUS
10
57.8222
20
-75.9131
11
57.8292
21
-75.9001
0
LINE
8
BLACK
6
CONTINUOUS
10
57.8292
20
-75.9001
11
57.8385
21
-75.8887
0
LINE
8
BLACK
6
CONTINUOUS
10
57.8385
20
-75.8887
11
58.7754
21
-74.9518
0
LINE
8
BLACK
6
CONTINUOUS
10
58.7754
20
-74.9518
11
58.7868
21
-74.9425
0
LINE
8
BLACK
6
CONTINUOUS
10
58.7868
20
-74.9425
11
58.7997
21
-74.9356
0
LINE
8
BLACK
6
CONTINUOUS
10
58.7997
20
-74.9356
11
58.8138
21
-74.9313
0
LINE
8
BLACK
6
CONTINUOUS
10
58.8138
20
-74.9313
11
58.8284
21
-74.9298
0
LINE
8
BLACK
6
CONTINUOUS
10
58.8284
20
-74.9298
11
58.8431
21
-74.9313
0
LINE
8
BLACK
6
CONTINUOUS
10
53.1862
20
-74.9313
11
53.2003
21
-74.9356
0
LINE
8
BLACK
6
CONTINUOUS
10
53.2003
20
-74.9356
11
53.2132
21
-74.9425
0
LINE
8
BLACK
6
CONTINUOUS
10
53.2132
20
-74.9425
11
53.2246
21
-74.9518
0
LINE
8
BLACK
6
CONTINUOUS
10
53.2246
20
-74.9518
11
54.1615
21
-75.8887
0
LINE
8
BLACK
6
CONTINUOUS
10
54.1615
20
-75.8887
11
54.1708
21
-75.9001
0
LINE
8
BLACK
6
CONTINUOUS
10
54.1708
20
-75.9001
11
54.1778
21
-75.9131
0
LINE
8
BLACK
6
CONTINUOUS
10
54.1778
20
-75.9131
11
54.182
21
-75.9271
0
LINE
8
BLACK
6
CONTINUOUS
10
54.182
20
-75.9271
11
54.1835
21
-75.9418
0
LINE
8
BLACK
6
CONTINUOUS
10
54.1835
20
-75.9418
11
54.182
21
-75.9564
0
LINE
8
BLACK
6
CONTINUOUS
10
54.182
20
-75.9564
11
54.1778
21
-75.9705
0
LINE
8
BLACK
6
CONTINUOUS
10
54.1778
20
-75.9705
11
54.1708
21
-75.9834
0
LINE
8
BLACK
6
CONTINUOUS
10
54.1708
20
-75.9834
11
54.1615
21
-75.9948
0
LINE
8
BLACK
6
CONTINUOUS
10
54.1615
20
-75.9948
11
54.0555
21
-76.1009
0
LINE
8
BLACK
6
CONTINUOUS
10
54.0555
20
-76.1009
11
54.0441
21
-76.1102
0
LINE
8
BLACK
6
CONTINUOUS
10
54.0441
20
-76.1102
11
54.0311
21
-76.1171
0
LINE
8
BLACK
6
CONTINUOUS
10
54.0311
20
-76.1171
11
54.0171
21
-76.1214
0
LINE
8
BLACK
6
CONTINUOUS
10
54.0171
20
-76.1214
11
54.0024
21
-76.1228
0
LINE
8
BLACK
6
CONTINUOUS
10
54.0024
20
-76.1228
11
53.9878
21
-76.1214
0
LINE
8
BLACK
6
CONTINUOUS
10
53.9878
20
-76.1214
11
53.9737
21
-76.1171
0
LINE
8
BLACK
6
CONTINUOUS
10
53.9737
20
-76.1171
11
53.9608
21
-76.1102
0
LINE
8
BLACK
6
CONTINUOUS
10
53.9608
20
-76.1102
11
53.9494
21
-76.1009
0
LINE
8
BLACK
6
CONTINUOUS
10
53.9494
20
-76.1009
11
53.0125
21
-75.1639
0
LINE
8
BLACK
6
CONTINUOUS
10
53.0125
20
-75.1639
11
53.0031
21
-75.1526
0
LINE
8
BLACK
6
CONTINUOUS
10
53.0031
20
-75.1526
11
52.9962
21
-75.1396
0
LINE
8
BLACK
6
CONTINUOUS
10
52.9962
20
-75.1396
11
52.9919
21
-75.1255
0
LINE
8
BLACK
6
CONTINUOUS
10
52.9919
20
-75.1255
11
52.9905
21
-75.1109
0
LINE
8
BLACK
6
CONTINUOUS
10
52.9905
20
-75.1109
11
52.9919
21
-75.0963
0
LINE
8
BLACK
6
CONTINUOUS
10
52.9919
20
-75.0963
11
52.9962
21
-75.0822
0
LINE
8
BLACK
6
CONTINUOUS
10
52.9962
20
-75.0822
11
53.0031
21
-75.0692
0
LINE
8
BLACK
6
CONTINUOUS
10
53.0031
20
-75.0692
11
53.0125
21
-75.0579
0
LINE
8
BLACK
6
CONTINUOUS
10
53.0125
20
-75.0579
11
53.1185
21
-74.9518
0
LINE
8
BLACK
6
CONTINUOUS
10
53.1185
20
-74.9518
11
53.1299
21
-74.9425
0
LINE
8
BLACK
6
CONTINUOUS
10
53.1299
20
-74.9425
11
53.1429
21
-74.9356
0
LINE
8
BLACK
6
CONTINUOUS
10
53.1429
20
-74.9356
11
53.1569
21
-74.9313
0
LINE
8
BLACK
6
CONTINUOUS
10
53.1569
20
-74.9313
11
53.1716
21
-74.9298
0
LINE
8
BLACK
6
CONTINUOUS
10
53.1716
20
-74.9298
11
53.1862
21
-74.9313
0
LINE
8
BLACK
6
CONTINUOUS
10
68.5398
20
-74.5777
11
68.5538
21
-74.582
0
LINE
8
BLACK
6
CONTINUOUS
10
68.5538
20
-74.582
11
68.5668
21
-74.5889
0
LINE
8
BLACK
6
CONTINUOUS
10
68.5668
20
-74.5889
11
68.5782
21
-74.5983
0
LINE
8
BLACK
6
CONTINUOUS
10
68.5782
20
-74.5983
11
69.5151
21
-75.5352
0
LINE
8
BLACK
6
CONTINUOUS
10
69.5151
20
-75.5352
11
69.5244
21
-75.5465
0
LINE
8
BLACK
6
CONTINUOUS
10
69.5244
20
-75.5465
11
69.5314
21
-75.5595
0
LINE
8
BLACK
6
CONTINUOUS
10
69.5314
20
-75.5595
11
69.5356
21
-75.5736
0
LINE
8
BLACK
6
CONTINUOUS
10
69.5356
20
-75.5736
11
69.5371
21
-75.5882
0
LINE
8
BLACK
6
CONTINUOUS
10
69.5371
20
-75.5882
11
69.5356
21
-75.6028
0
LINE
8
BLACK
6
CONTINUOUS
10
69.5356
20
-75.6028
11
69.5314
21
-75.6169
0
LINE
8
BLACK
6
CONTINUOUS
10
69.5314
20
-75.6169
11
69.5244
21
-75.6299
0
LINE
8
BLACK
6
CONTINUOUS
10
69.5244
20
-75.6299
11
69.5151
21
-75.6412
0
LINE
8
BLACK
6
CONTINUOUS
10
69.5151
20
-75.6412
11
69.409
21
-75.7473
0
LINE
8
BLACK
6
CONTINUOUS
10
69.409
20
-75.7473
11
69.3977
21
-75.7566
0
LINE
8
BLACK
6
CONTINUOUS
10
69.3977
20
-75.7566
11
69.3847
21
-75.7636
0
LINE
8
BLACK
6
CONTINUOUS
10
69.3847
20
-75.7636
11
69.3706
21
-75.7678
0
LINE
8
BLACK
6
CONTINUOUS
10
69.3706
20
-75.7678
11
69.356
21
-75.7693
0
LINE
8
BLACK
6
CONTINUOUS
10
69.356
20
-75.7693
11
69.3414
21
-75.7678
0
LINE
8
BLACK
6
CONTINUOUS
10
69.3414
20
-75.7678
11
69.3273
21
-75.7636
0
LINE
8
BLACK
6
CONTINUOUS
10
69.3273
20
-75.7636
11
69.3143
21
-75.7566
0
LINE
8
BLACK
6
CONTINUOUS
10
69.3143
20
-75.7566
11
69.303
21
-75.7473
0
LINE
8
BLACK
6
CONTINUOUS
10
69.303
20
-75.7473
11
68.366
21
-74.8104
0
LINE
8
BLACK
6
CONTINUOUS
10
68.366
20
-74.8104
11
68.3567
21
-74.799
0
LINE
8
BLACK
6
CONTINUOUS
10
68.3567
20
-74.799
11
68.3498
21
-74.7861
0
LINE
8
BLACK
6
CONTINUOUS
10
68.3498
20
-74.7861
11
68.3455
21
-74.772
0
LINE
8
BLACK
6
CONTINUOUS
10
68.3455
20
-74.772
11
68.3441
21
-74.7574
0
LINE
8
BLACK
6
CONTINUOUS
10
68.3441
20
-74.7574
11
68.3455
21
-74.7427
0
LINE
8
BLACK
6
CONTINUOUS
10
68.3455
20
-74.7427
11
68.3498
21
-74.7287
0
LINE
8
BLACK
6
CONTINUOUS
10
68.3498
20
-74.7287
11
68.3567
21
-74.7157
0
LINE
8
BLACK
6
CONTINUOUS
10
68.3567
20
-74.7157
11
68.366
21
-74.7043
0
LINE
8
BLACK
6
CONTINUOUS
10
68.366
20
-74.7043
11
68.4721
21
-74.5983
0
LINE
8
BLACK
6
CONTINUOUS
10
68.4721
20
-74.5983
11
68.4835
21
-74.5889
0
LINE
8
BLACK
6
CONTINUOUS
10
68.4835
20
-74.5889
11
68.4964
21
-74.582
0
LINE
8
BLACK
6
CONTINUOUS
10
68.4964
20
-74.582
11
68.5105
21
-74.5777
0
LINE
8
BLACK
6
CONTINUOUS
10
68.5105
20
-74.5777
11
68.5251
21
-74.5763
0
LINE
8
BLACK
6
CONTINUOUS
10
68.5251
20
-74.5763
11
68.5398
21
-74.5777
0
LINE
8
BLACK
6
CONTINUOUS
10
58.4895
20
-74.5777
11
58.5036
21
-74.582
0
LINE
8
BLACK
6
CONTINUOUS
10
58.5036
20
-74.582
11
58.5165
21
-74.5889
0
LINE
8
BLACK
6
CONTINUOUS
10
58.5165
20
-74.5889
11
58.5279
21
-74.5983
0
LINE
8
BLACK
6
CONTINUOUS
10
58.5279
20
-74.5983
11
58.634
21
-74.7043
0
LINE
8
BLACK
6
CONTINUOUS
10
58.634
20
-74.7043
11
58.6433
21
-74.7157
0
LINE
8
BLACK
6
CONTINUOUS
10
58.6433
20
-74.7157
11
58.6502
21
-74.7287
0
LINE
8
BLACK
6
CONTINUOUS
10
58.6502
20
-74.7287
11
58.6545
21
-74.7427
0
LINE
8
BLACK
6
CONTINUOUS
10
58.6545
20
-74.7427
11
58.6559
21
-74.7574
0
LINE
8
BLACK
6
CONTINUOUS
10
58.6559
20
-74.7574
11
58.6545
21
-74.772
0
LINE
8
BLACK
6
CONTINUOUS
10
58.6545
20
-74.772
11
58.6502
21
-74.7861
0
LINE
8
BLACK
6
CONTINUOUS
10
58.6502
20
-74.7861
11
58.6433
21
-74.799
0
LINE
8
BLACK
6
CONTINUOUS
10
58.6433
20
-74.799
11
58.634
21
-74.8104
0
LINE
8
BLACK
6
CONTINUOUS
10
58.634
20
-74.8104
11
57.6971
21
-75.7473
0
LINE
8
BLACK
6
CONTINUOUS
10
57.6971
20
-75.7473
11
57.6857
21
-75.7566
0
LINE
8
BLACK
6
CONTINUOUS
10
57.6857
20
-75.7566
11
57.6727
21
-75.7636
0
LINE
8
BLACK
6
CONTINUOUS
10
57.6727
20
-75.7636
11
57.6587
21
-75.7678
0
LINE
8
BLACK
6
CONTINUOUS
10
57.6587
20
-75.7678
11
57.644
21
-75.7693
0
LINE
8
BLACK
6
CONTINUOUS
10
57.644
20
-75.7693
11
57.6294
21
-75.7678
0
LINE
8
BLACK
6
CONTINUOUS
10
57.6294
20
-75.7678
11
57.6153
21
-75.7636
0
LINE
8
BLACK
6
CONTINUOUS
10
57.6153
20
-75.7636
11
57.6024
21
-75.7566
0
LINE
8
BLACK
6
CONTINUOUS
10
57.6024
20
-75.7566
11
57.591
21
-75.7473
0
LINE
8
BLACK
6
CONTINUOUS
10
57.591
20
-75.7473
11
57.4849
21
-75.6412
0
LINE
8
BLACK
6
CONTINUOUS
10
57.4849
20
-75.6412
11
57.4756
21
-75.6299
0
LINE
8
BLACK
6
CONTINUOUS
10
57.4756
20
-75.6299
11
57.4687
21
-75.6169
0
LINE
8
BLACK
6
CONTINUOUS
10
57.4687
20
-75.6169
11
57.4644
21
-75.6028
0
LINE
8
BLACK
6
CONTINUOUS
10
57.4644
20
-75.6028
11
57.463
21
-75.5882
0
LINE
8
BLACK
6
CONTINUOUS
10
57.463
20
-75.5882
11
57.4644
21
-75.5736
0
LINE
8
BLACK
6
CONTINUOUS
10
57.4644
20
-75.5736
11
57.4687
21
-75.5595
0
LINE
8
BLACK
6
CONTINUOUS
10
57.4687
20
-75.5595
11
57.4756
21
-75.5465
0
LINE
8
BLACK
6
CONTINUOUS
10
57.4756
20
-75.5465
11
57.4849
21
-75.5352
0
LINE
8
BLACK
6
CONTINUOUS
10
57.4849
20
-75.5352
11
58.4218
21
-74.5983
0
LINE
8
BLACK
6
CONTINUOUS
10
58.4218
20
-74.5983
11
58.4332
21
-74.5889
0
LINE
8
BLACK
6
CONTINUOUS
10
58.4332
20
-74.5889
11
58.4462
21
-74.582
0
LINE
8
BLACK
6
CONTINUOUS
10
58.4462
20
-74.582
11
58.4602
21
-74.5777
0
LINE
8
BLACK
6
CONTINUOUS
10
58.4602
20
-74.5777
11
58.4749
21
-74.5763
0
LINE
8
BLACK
6
CONTINUOUS
10
58.4749
20
-74.5763
11
58.4895
21
-74.5777
0
LINE
8
BLACK
6
CONTINUOUS
10
53.5398
20
-74.5777
11
53.5538
21
-74.582
0
LINE
8
BLACK
6
CONTINUOUS
10
53.5538
20
-74.582
11
53.5668
21
-74.5889
0
LINE
8
BLACK
6
CONTINUOUS
10
53.5668
20
-74.5889
11
53.5782
21
-74.5983
0
LINE
8
BLACK
6
CONTINUOUS
10
53.5782
20
-74.5983
11
54.5151
21
-75.5352
0
LINE
8
BLACK
6
CONTINUOUS
10
54.5151
20
-75.5352
11
54.5244
21
-75.5465
0
LINE
8
BLACK
6
CONTINUOUS
10
54.5244
20
-75.5465
11
54.5313
21
-75.5595
0
LINE
8
BLACK
6
CONTINUOUS
10
54.5313
20
-75.5595
11
54.5356
21
-75.5736
0
LINE
8
BLACK
6
CONTINUOUS
10
54.5356
20
-75.5736
11
54.537
21
-75.5882
0
LINE
8
BLACK
6
CONTINUOUS
10
54.537
20
-75.5882
11
54.5356
21
-75.6028
0
LINE
8
BLACK
6
CONTINUOUS
10
54.5356
20
-75.6028
11
54.5313
21
-75.6169
0
LINE
8
BLACK
6
CONTINUOUS
10
54.5313
20
-75.6169
11
54.5244
21
-75.6299
0
LINE
8
BLACK
6
CONTINUOUS
10
54.5244
20
-75.6299
11
54.5151
21
-75.6412
0
LINE
8
BLACK
6
CONTINUOUS
10
54.5151
20
-75.6412
11
54.409
21
-75.7473
0
LINE
8
BLACK
6
CONTINUOUS
10
54.409
20
-75.7473
11
54.3976
21
-75.7566
0
LINE
8
BLACK
6
CONTINUOUS
10
54.3976
20
-75.7566
11
54.3847
21
-75.7636
0
LINE
8
BLACK
6
CONTINUOUS
10
54.3847
20
-75.7636
11
54.3706
21
-75.7678
0
LINE
8
BLACK
6
CONTINUOUS
10
54.3706
20
-75.7678
11
54.356
21
-75.7693
0
LINE
8
BLACK
6
CONTINUOUS
10
54.356
20
-75.7693
11
54.3413
21
-75.7678
0
LINE
8
BLACK
6
CONTINUOUS
10
54.3413
20
-75.7678
11
54.3273
21
-75.7636
0
LINE
8
BLACK
6
CONTINUOUS
10
54.3273
20
-75.7636
11
54.3143
21
-75.7566
0
LINE
8
BLACK
6
CONTINUOUS
10
54.3143
20
-75.7566
11
54.3029
21
-75.7473
0
LINE
8
BLACK
6
CONTINUOUS
10
54.3029
20
-75.7473
11
53.366
21
-74.8104
0
LINE
8
BLACK
6
CONTINUOUS
10
53.366
20
-74.8104
11
53.3567
21
-74.799
0
LINE
8
BLACK
6
CONTINUOUS
10
53.3567
20
-74.799
11
53.3498
21
-74.7861
0
LINE
8
BLACK
6
CONTINUOUS
10
53.3498
20
-74.7861
11
53.3455
21
-74.772
0
LINE
8
BLACK
6
CONTINUOUS
10
53.3455
20
-74.772
11
53.3441
21
-74.7574
0
LINE
8
BLACK
6
CONTINUOUS
10
53.3441
20
-74.7574
11
53.3455
21
-74.7427
0
LINE
8
BLACK
6
CONTINUOUS
10
53.3455
20
-74.7427
11
53.3498
21
-74.7287
0
LINE
8
BLACK
6
CONTINUOUS
10
53.3498
20
-74.7287
11
53.3567
21
-74.7157
0
LINE
8
BLACK
6
CONTINUOUS
10
53.3567
20
-74.7157
11
53.366
21
-74.7043
0
LINE
8
BLACK
6
CONTINUOUS
10
53.366
20
-74.7043
11
53.4721
21
-74.5983
0
LINE
8
BLACK
6
CONTINUOUS
10
53.4721
20
-74.5983
11
53.4835
21
-74.5889
0
LINE
8
BLACK
6
CONTINUOUS
10
53.4835
20
-74.5889
11
53.4964
21
-74.582
0
LINE
8
BLACK
6
CONTINUOUS
10
53.4964
20
-74.582
11
53.5105
21
-74.5777
0
LINE
8
BLACK
6
CONTINUOUS
10
53.5105
20
-74.5777
11
53.5251
21
-74.5763
0
LINE
8
BLACK
6
CONTINUOUS
10
53.5251
20
-74.5763
11
53.5398
21
-74.5777
0
LINE
8
BLACK
6
CONTINUOUS
10
73.4895
20
-74.5777
11
73.5036
21
-74.582
0
LINE
8
BLACK
6
CONTINUOUS
10
73.5036
20
-74.582
11
73.5166
21
-74.5889
0
LINE
8
BLACK
6
CONTINUOUS
10
73.5166
20
-74.5889
11
73.5279
21
-74.5983
0
LINE
8
BLACK
6
CONTINUOUS
10
73.5279
20
-74.5983
11
73.634
21
-74.7043
0
LINE
8
BLACK
6
CONTINUOUS
10
73.634
20
-74.7043
11
73.6433
21
-74.7157
0
LINE
8
BLACK
6
CONTINUOUS
10
73.6433
20
-74.7157
11
73.6502
21
-74.7287
0
LINE
8
BLACK
6
CONTINUOUS
10
73.6502
20
-74.7287
11
73.6545
21
-74.7427
0
LINE
8
BLACK
6
CONTINUOUS
10
73.6545
20
-74.7427
11
73.656
21
-74.7574
0
LINE
8
BLACK
6
CONTINUOUS
10
73.656
20
-74.7574
11
73.6545
21
-74.772
0
LINE
8
BLACK
6
CONTINUOUS
10
73.6545
20
-74.772
11
73.6502
21
-74.7861
0
LINE
8
BLACK
6
CONTINUOUS
10
73.6502
20
-74.7861
11
73.6433
21
-74.799
0
LINE
8
BLACK
6
CONTINUOUS
10
73.6433
20
-74.799
11
73.634
21
-74.8104
0
LINE
8
BLACK
6
CONTINUOUS
10
73.634
20
-74.8104
11
72.6971
21
-75.7473
0
LINE
8
BLACK
6
CONTINUOUS
10
72.6971
20
-75.7473
11
72.6857
21
-75.7566
0
LINE
8
BLACK
6
CONTINUOUS
10
72.6857
20
-75.7566
11
72.6727
21
-75.7636
0
LINE
8
BLACK
6
CONTINUOUS
10
72.6727
20
-75.7636
11
72.6587
21
-75.7678
0
LINE
8
BLACK
6
CONTINUOUS
10
72.6587
20
-75.7678
11
72.644
21
-75.7693
0
LINE
8
BLACK
6
CONTINUOUS
10
72.644
20
-75.7693
11
72.6294
21
-75.7678
0
LINE
8
BLACK
6
CONTINUOUS
10
72.6294
20
-75.7678
11
72.6153
21
-75.7636
0
LINE
8
BLACK
6
CONTINUOUS
10
72.6153
20
-75.7636
11
72.6024
21
-75.7566
0
LINE
8
BLACK
6
CONTINUOUS
10
72.6024
20
-75.7566
11
72.591
21
-75.7473
0
LINE
8
BLACK
6
CONTINUOUS
10
72.591
20
-75.7473
11
72.4849
21
-75.6412
0
LINE
8
BLACK
6
CONTINUOUS
10
72.4849
20
-75.6412
11
72.4756
21
-75.6299
0
LINE
8
BLACK
6
CONTINUOUS
10
72.4756
20
-75.6299
11
72.4687
21
-75.6169
0
LINE
8
BLACK
6
CONTINUOUS
10
72.4687
20
-75.6169
11
72.4644
21
-75.6028
0
LINE
8
BLACK
6
CONTINUOUS
10
72.4644
20
-75.6028
11
72.463
21
-75.5882
0
LINE
8
BLACK
6
CONTINUOUS
10
72.463
20
-75.5882
11
72.4644
21
-75.5736
0
LINE
8
BLACK
6
CONTINUOUS
10
72.4644
20
-75.5736
11
72.4687
21
-75.5595
0
LINE
8
BLACK
6
CONTINUOUS
10
72.4687
20
-75.5595
11
72.4756
21
-75.5465
0
LINE
8
BLACK
6
CONTINUOUS
10
72.4756
20
-75.5465
11
72.4849
21
-75.5352
0
LINE
8
BLACK
6
CONTINUOUS
10
72.4849
20
-75.5352
11
73.4219
21
-74.5983
0
LINE
8
BLACK
6
CONTINUOUS
10
73.4219
20
-74.5983
11
73.4332
21
-74.5889
0
LINE
8
BLACK
6
CONTINUOUS
10
73.4332
20
-74.5889
11
73.4462
21
-74.582
0
LINE
8
BLACK
6
CONTINUOUS
10
73.4462
20
-74.582
11
73.4603
21
-74.5777
0
LINE
8
BLACK
6
CONTINUOUS
10
73.4603
20
-74.5777
11
73.4749
21
-74.5763
0
LINE
8
BLACK
6
CONTINUOUS
10
73.4749
20
-74.5763
11
73.4895
21
-74.5777
0
LINE
8
BLACK
6
CONTINUOUS
10
73.136
20
-74.2242
11
73.15
21
-74.2284
0
LINE
8
BLACK
6
CONTINUOUS
10
73.15
20
-74.2284
11
73.163
21
-74.2354
0
LINE
8
BLACK
6
CONTINUOUS
10
73.163
20
-74.2354
11
73.1744
21
-74.2447
0
LINE
8
BLACK
6
CONTINUOUS
10
73.1744
20
-74.2447
11
73.2804
21
-74.3508
0
LINE
8
BLACK
6
CONTINUOUS
10
73.2804
20
-74.3508
11
73.2898
21
-74.3621
0
LINE
8
BLACK
6
CONTINUOUS
10
73.2898
20
-74.3621
11
73.2967
21
-74.3751
0
LINE
8
BLACK
6
CONTINUOUS
10
73.2967
20
-74.3751
11
73.301
21
-74.3892
0
LINE
8
BLACK
6
CONTINUOUS
10
73.301
20
-74.3892
11
73.3024
21
-74.4038
0
LINE
8
BLACK
6
CONTINUOUS
10
73.3024
20
-74.4038
11
73.301
21
-74.4184
0
LINE
8
BLACK
6
CONTINUOUS
10
73.301
20
-74.4184
11
73.2967
21
-74.4325
0
LINE
8
BLACK
6
CONTINUOUS
10
73.2967
20
-74.4325
11
73.2898
21
-74.4455
0
LINE
8
BLACK
6
CONTINUOUS
10
73.2898
20
-74.4455
11
73.2804
21
-74.4568
0
LINE
8
BLACK
6
CONTINUOUS
10
73.2804
20
-74.4568
11
72.3435
21
-75.3938
0
LINE
8
BLACK
6
CONTINUOUS
10
72.3435
20
-75.3938
11
72.3322
21
-75.4031
0
LINE
8
BLACK
6
CONTINUOUS
10
72.3322
20
-75.4031
11
72.3192
21
-75.41
0
LINE
8
BLACK
6
CONTINUOUS
10
72.3192
20
-75.41
11
72.3051
21
-75.4143
0
LINE
8
BLACK
6
CONTINUOUS
10
72.3051
20
-75.4143
11
72.2905
21
-75.4157
0
LINE
8
BLACK
6
CONTINUOUS
10
72.2905
20
-75.4157
11
72.2759
21
-75.4143
0
LINE
8
BLACK
6
CONTINUOUS
10
72.2759
20
-75.4143
11
72.2618
21
-75.41
0
LINE
8
BLACK
6
CONTINUOUS
10
72.2618
20
-75.41
11
72.2488
21
-75.4031
0
LINE
8
BLACK
6
CONTINUOUS
10
72.2488
20
-75.4031
11
72.2375
21
-75.3938
0
LINE
8
BLACK
6
CONTINUOUS
10
72.2375
20
-75.3938
11
72.1314
21
-75.2877
0
LINE
8
BLACK
6
CONTINUOUS
10
72.1314
20
-75.2877
11
72.1221
21
-75.2763
0
LINE
8
BLACK
6
CONTINUOUS
10
72.1221
20
-75.2763
11
72.1151
21
-75.2634
0
LINE
8
BLACK
6
CONTINUOUS
10
72.1151
20
-75.2634
11
72.1109
21
-75.2493
0
LINE
8
BLACK
6
CONTINUOUS
10
72.1109
20
-75.2493
11
72.1094
21
-75.2347
0
LINE
8
BLACK
6
CONTINUOUS
10
72.1094
20
-75.2347
11
72.1109
21
-75.22
0
LINE
8
BLACK
6
CONTINUOUS
10
72.1109
20
-75.22
11
72.1151
21
-75.206
0
LINE
8
BLACK
6
CONTINUOUS
10
72.1151
20
-75.206
11
72.1221
21
-75.193
0
LINE
8
BLACK
6
CONTINUOUS
10
72.1221
20
-75.193
11
72.1314
21
-75.1816
0
LINE
8
BLACK
6
CONTINUOUS
10
72.1314
20
-75.1816
11
73.0683
21
-74.2447
0
LINE
8
BLACK
6
CONTINUOUS
10
73.0683
20
-74.2447
11
73.0797
21
-74.2354
0
LINE
8
BLACK
6
CONTINUOUS
10
73.0797
20
-74.2354
11
73.0926
21
-74.2284
0
LINE
8
BLACK
6
CONTINUOUS
10
73.0926
20
-74.2284
11
73.1067
21
-74.2242
0
LINE
8
BLACK
6
CONTINUOUS
10
73.1067
20
-74.2242
11
73.1213
21
-74.2227
0
LINE
8
BLACK
6
CONTINUOUS
10
73.1213
20
-74.2227
11
73.136
21
-74.2242
0
LINE
8
BLACK
6
CONTINUOUS
10
68.8933
20
-74.2242
11
68.9074
21
-74.2284
0
LINE
8
BLACK
6
CONTINUOUS
10
68.9074
20
-74.2284
11
68.9204
21
-74.2354
0
LINE
8
BLACK
6
CONTINUOUS
10
68.9204
20
-74.2354
11
68.9317
21
-74.2447
0
LINE
8
BLACK
6
CONTINUOUS
10
68.9317
20
-74.2447
11
69.8686
21
-75.1816
0
LINE
8
BLACK
6
CONTINUOUS
10
69.8686
20
-75.1816
11
69.878
21
-75.193
0
LINE
8
BLACK
6
CONTINUOUS
10
69.878
20
-75.193
11
69.8849
21
-75.206
0
LINE
8
BLACK
6
CONTINUOUS
10
69.8849
20
-75.206
11
69.8892
21
-75.22
0
LINE
8
BLACK
6
CONTINUOUS
10
69.8892
20
-75.22
11
69.8906
21
-75.2347
0
LINE
8
BLACK
6
CONTINUOUS
10
69.8906
20
-75.2347
11
69.8892
21
-75.2493
0
LINE
8
BLACK
6
CONTINUOUS
10
69.8892
20
-75.2493
11
69.8849
21
-75.2634
0
LINE
8
BLACK
6
CONTINUOUS
10
69.8849
20
-75.2634
11
69.878
21
-75.2763
0
LINE
8
BLACK
6
CONTINUOUS
10
69.878
20
-75.2763
11
69.8686
21
-75.2877
0
LINE
8
BLACK
6
CONTINUOUS
10
69.8686
20
-75.2877
11
69.7626
21
-75.3938
0
LINE
8
BLACK
6
CONTINUOUS
10
69.7626
20
-75.3938
11
69.7512
21
-75.4031
0
LINE
8
BLACK
6
CONTINUOUS
10
69.7512
20
-75.4031
11
69.7382
21
-75.41
0
LINE
8
BLACK
6
CONTINUOUS
10
69.7382
20
-75.41
11
69.7242
21
-75.4143
0
LINE
8
BLACK
6
CONTINUOUS
10
69.7242
20
-75.4143
11
69.7095
21
-75.4157
0
LINE
8
BLACK
6
CONTINUOUS
10
69.7095
20
-75.4157
11
69.6949
21
-75.4143
0
LINE
8
BLACK
6
CONTINUOUS
10
69.6949
20
-75.4143
11
69.6808
21
-75.41
0
LINE
8
BLACK
6
CONTINUOUS
10
69.6808
20
-75.41
11
69.6679
21
-75.4031
0
LINE
8
BLACK
6
CONTINUOUS
10
69.6679
20
-75.4031
11
69.6565
21
-75.3938
0
LINE
8
BLACK
6
CONTINUOUS
10
69.6565
20
-75.3938
11
68.7196
21
-74.4568
0
LINE
8
BLACK
6
CONTINUOUS
10
68.7196
20
-74.4568
11
68.7103
21
-74.4455
0
LINE
8
BLACK
6
CONTINUOUS
10
68.7103
20
-74.4455
11
68.7033
21
-74.4325
0
LINE
8
BLACK
6
CONTINUOUS
10
68.7033
20
-74.4325
11
68.6991
21
-74.4184
0
LINE
8
BLACK
6
CONTINUOUS
10
68.6991
20
-74.4184
11
68.6976
21
-74.4038
0
LINE
8
BLACK
6
CONTINUOUS
10
68.6976
20
-74.4038
11
68.6991
21
-74.3892
0
LINE
8
BLACK
6
CONTINUOUS
10
68.6991
20
-74.3892
11
68.7033
21
-74.3751
0
LINE
8
BLACK
6
CONTINUOUS
10
68.7033
20
-74.3751
11
68.7103
21
-74.3621
0
LINE
8
BLACK
6
CONTINUOUS
10
68.7103
20
-74.3621
11
68.7196
21
-74.3508
0
LINE
8
BLACK
6
CONTINUOUS
10
68.7196
20
-74.3508
11
68.8257
21
-74.2447
0
LINE
8
BLACK
6
CONTINUOUS
10
68.8257
20
-74.2447
11
68.837
21
-74.2354
0
LINE
8
BLACK
6
CONTINUOUS
10
68.837
20
-74.2354
11
68.85
21
-74.2284
0
LINE
8
BLACK
6
CONTINUOUS
10
68.85
20
-74.2284
11
68.8641
21
-74.2242
0
LINE
8
BLACK
6
CONTINUOUS
10
68.8641
20
-74.2242
11
68.8787
21
-74.2227
0
LINE
8
BLACK
6
CONTINUOUS
10
68.8787
20
-74.2227
11
68.8933
21
-74.2242
0
LINE
8
BLACK
6
CONTINUOUS
10
53.8933
20
-74.2242
11
53.9074
21
-74.2284
0
LINE
8
BLACK
6
CONTINUOUS
10
53.9074
20
-74.2284
11
53.9203
21
-74.2354
0
LINE
8
BLACK
6
CONTINUOUS
10
53.9203
20
-74.2354
11
53.9317
21
-74.2447
0
LINE
8
BLACK
6
CONTINUOUS
10
53.9317
20
-74.2447
11
54.8686
21
-75.1816
0
LINE
8
BLACK
6
CONTINUOUS
10
54.8686
20
-75.1816
11
54.878
21
-75.193
0
LINE
8
BLACK
6
CONTINUOUS
10
54.878
20
-75.193
11
54.8849
21
-75.206
0
LINE
8
BLACK
6
CONTINUOUS
10
54.8849
20
-75.206
11
54.8892
21
-75.22
0
LINE
8
BLACK
6
CONTINUOUS
10
54.8892
20
-75.22
11
54.8906
21
-75.2347
0
LINE
8
BLACK
6
CONTINUOUS
10
54.8906
20
-75.2347
11
54.8892
21
-75.2493
0
LINE
8
BLACK
6
CONTINUOUS
10
54.8892
20
-75.2493
11
54.8849
21
-75.2634
0
LINE
8
BLACK
6
CONTINUOUS
10
54.8849
20
-75.2634
11
54.878
21
-75.2763
0
LINE
8
BLACK
6
CONTINUOUS
10
54.878
20
-75.2763
11
54.8686
21
-75.2877
0
LINE
8
BLACK
6
CONTINUOUS
10
54.8686
20
-75.2877
11
54.7626
21
-75.3938
0
LINE
8
BLACK
6
CONTINUOUS
10
54.7626
20
-75.3938
11
54.7512
21
-75.4031
0
LINE
8
BLACK
6
CONTINUOUS
10
54.7512
20
-75.4031
11
54.7382
21
-75.41
0
LINE
8
BLACK
6
CONTINUOUS
10
54.7382
20
-75.41
11
54.7242
21
-75.4143
0
LINE
8
BLACK
6
CONTINUOUS
10
54.7242
20
-75.4143
11
54.7095
21
-75.4157
0
LINE
8
BLACK
6
CONTINUOUS
10
54.7095
20
-75.4157
11
54.6949
21
-75.4143
0
LINE
8
BLACK
6
CONTINUOUS
10
54.6949
20
-75.4143
11
54.6808
21
-75.41
0
LINE
8
BLACK
6
CONTINUOUS
10
54.6808
20
-75.41
11
54.6679
21
-75.4031
0
LINE
8
BLACK
6
CONTINUOUS
10
54.6679
20
-75.4031
11
54.6565
21
-75.3938
0
LINE
8
BLACK
6
CONTINUOUS
10
54.6565
20
-75.3938
11
53.7196
21
-74.4568
0
LINE
8
BLACK
6
CONTINUOUS
10
53.7196
20
-74.4568
11
53.7103
21
-74.4455
0
LINE
8
BLACK
6
CONTINUOUS
10
53.7103
20
-74.4455
11
53.7033
21
-74.4325
0
LINE
8
BLACK
6
CONTINUOUS
10
53.7033
20
-74.4325
11
53.6991
21
-74.4184
0
LINE
8
BLACK
6
CONTINUOUS
10
53.6991
20
-74.4184
11
53.6976
21
-74.4038
0
LINE
8
BLACK
6
CONTINUOUS
10
53.6976
20
-74.4038
11
53.6991
21
-74.3892
0
LINE
8
BLACK
6
CONTINUOUS
10
53.6991
20
-74.3892
11
53.7033
21
-74.3751
0
LINE
8
BLACK
6
CONTINUOUS
10
53.7033
20
-74.3751
11
53.7103
21
-74.3621
0
LINE
8
BLACK
6
CONTINUOUS
10
53.7103
20
-74.3621
11
53.7196
21
-74.3508
0
LINE
8
BLACK
6
CONTINUOUS
10
53.7196
20
-74.3508
11
53.8256
21
-74.2447
0
LINE
8
BLACK
6
CONTINUOUS
10
53.8256
20
-74.2447
11
53.837
21
-74.2354
0
LINE
8
BLACK
6
CONTINUOUS
10
53.837
20
-74.2354
11
53.85
21
-74.2284
0
LINE
8
BLACK
6
CONTINUOUS
10
53.85
20
-74.2284
11
53.864
21
-74.2242
0
LINE
8
BLACK
6
CONTINUOUS
10
53.864
20
-74.2242
11
53.8787
21
-74.2227
0
LINE
8
BLACK
6
CONTINUOUS
10
53.8787
20
-74.2227
11
53.8933
21
-74.2242
0
LINE
8
BLACK
6
CONTINUOUS
10
58.136
20
-74.2242
11
58.15
21
-74.2284
0
LINE
8
BLACK
6
CONTINUOUS
10
58.15
20
-74.2284
11
58.163
21
-74.2354
0
LINE
8
BLACK
6
CONTINUOUS
10
58.163
20
-74.2354
11
58.1744
21
-74.2447
0
LINE
8
BLACK
6
CONTINUOUS
10
58.1744
20
-74.2447
11
58.2804
21
-74.3508
0
LINE
8
BLACK
6
CONTINUOUS
10
58.2804
20
-74.3508
11
58.2897
21
-74.3621
0
LINE
8
BLACK
6
CONTINUOUS
10
58.2897
20
-74.3621
11
58.2967
21
-74.3751
0
LINE
8
BLACK
6
CONTINUOUS
10
58.2967
20
-74.3751
11
58.3009
21
-74.3892
0
LINE
8
BLACK
6
CONTINUOUS
10
58.3009
20
-74.3892
11
58.3024
21
-74.4038
0
LINE
8
BLACK
6
CONTINUOUS
10
58.3024
20
-74.4038
11
58.3009
21
-74.4184
0
LINE
8
BLACK
6
CONTINUOUS
10
58.3009
20
-74.4184
11
58.2967
21
-74.4325
0
LINE
8
BLACK
6
CONTINUOUS
10
58.2967
20
-74.4325
11
58.2897
21
-74.4455
0
LINE
8
BLACK
6
CONTINUOUS
10
58.2897
20
-74.4455
11
58.2804
21
-74.4568
0
LINE
8
BLACK
6
CONTINUOUS
10
58.2804
20
-74.4568
11
57.3435
21
-75.3938
0
LINE
8
BLACK
6
CONTINUOUS
10
57.3435
20
-75.3938
11
57.3321
21
-75.4031
0
LINE
8
BLACK
6
CONTINUOUS
10
57.3321
20
-75.4031
11
57.3192
21
-75.41
0
LINE
8
BLACK
6
CONTINUOUS
10
57.3192
20
-75.41
11
57.3051
21
-75.4143
0
LINE
8
BLACK
6
CONTINUOUS
10
57.3051
20
-75.4143
11
57.2905
21
-75.4157
0
LINE
8
BLACK
6
CONTINUOUS
10
57.2905
20
-75.4157
11
57.2758
21
-75.4143
0
LINE
8
BLACK
6
CONTINUOUS
10
57.2758
20
-75.4143
11
57.2618
21
-75.41
0
LINE
8
BLACK
6
CONTINUOUS
10
57.2618
20
-75.41
11
57.2488
21
-75.4031
0
LINE
8
BLACK
6
CONTINUOUS
10
57.2488
20
-75.4031
11
57.2374
21
-75.3938
0
LINE
8
BLACK
6
CONTINUOUS
10
57.2374
20
-75.3938
11
57.1314
21
-75.2877
0
LINE
8
BLACK
6
CONTINUOUS
10
57.1314
20
-75.2877
11
57.122
21
-75.2763
0
LINE
8
BLACK
6
CONTINUOUS
10
57.122
20
-75.2763
11
57.1151
21
-75.2634
0
LINE
8
BLACK
6
CONTINUOUS
10
57.1151
20
-75.2634
11
57.1108
21
-75.2493
0
LINE
8
BLACK
6
CONTINUOUS
10
57.1108
20
-75.2493
11
57.1094
21
-75.2347
0
LINE
8
BLACK
6
CONTINUOUS
10
57.1094
20
-75.2347
11
57.1108
21
-75.22
0
LINE
8
BLACK
6
CONTINUOUS
10
57.1108
20
-75.22
11
57.1151
21
-75.206
0
LINE
8
BLACK
6
CONTINUOUS
10
57.1151
20
-75.206
11
57.122
21
-75.193
0
LINE
8
BLACK
6
CONTINUOUS
10
57.122
20
-75.193
11
57.1314
21
-75.1816
0
LINE
8
BLACK
6
CONTINUOUS
10
57.1314
20
-75.1816
11
58.0683
21
-74.2447
0
LINE
8
BLACK
6
CONTINUOUS
10
58.0683
20
-74.2447
11
58.0797
21
-74.2354
0
LINE
8
BLACK
6
CONTINUOUS
10
58.0797
20
-74.2354
11
58.0926
21
-74.2284
0
LINE
8
BLACK
6
CONTINUOUS
10
58.0926
20
-74.2284
11
58.1067
21
-74.2242
0
LINE
8
BLACK
6
CONTINUOUS
10
58.1067
20
-74.2242
11
58.1213
21
-74.2227
0
LINE
8
BLACK
6
CONTINUOUS
10
58.1213
20
-74.2227
11
58.136
21
-74.2242
0
LINE
8
BLACK
6
CONTINUOUS
10
69.2469
20
-73.8706
11
69.261
21
-73.8749
0
LINE
8
BLACK
6
CONTINUOUS
10
69.261
20
-73.8749
11
69.2739
21
-73.8818
0
LINE
8
BLACK
6
CONTINUOUS
10
69.2739
20
-73.8818
11
69.2853
21
-73.8912
0
LINE
8
BLACK
6
CONTINUOUS
10
69.2853
20
-73.8912
11
70.2222
21
-74.8281
0
LINE
8
BLACK
6
CONTINUOUS
10
70.2222
20
-74.8281
11
70.2315
21
-74.8394
0
LINE
8
BLACK
6
CONTINUOUS
10
70.2315
20
-74.8394
11
70.2385
21
-74.8524
0
LINE
8
BLACK
6
CONTINUOUS
10
70.2385
20
-74.8524
11
70.2427
21
-74.8665
0
LINE
8
BLACK
6
CONTINUOUS
10
70.2427
20
-74.8665
11
70.2442
21
-74.8811
0
LINE
8
BLACK
6
CONTINUOUS
10
70.2442
20
-74.8811
11
70.2427
21
-74.8957
0
LINE
8
BLACK
6
CONTINUOUS
10
70.2427
20
-74.8957
11
70.2385
21
-74.9098
0
LINE
8
BLACK
6
CONTINUOUS
10
70.2385
20
-74.9098
11
70.2315
21
-74.9228
0
LINE
8
BLACK
6
CONTINUOUS
10
70.2315
20
-74.9228
11
70.2222
21
-74.9341
0
LINE
8
BLACK
6
CONTINUOUS
10
70.2222
20
-74.9341
11
70.1161
21
-75.0402
0
LINE
8
BLACK
6
CONTINUOUS
10
70.1161
20
-75.0402
11
70.1048
21
-75.0495
0
LINE
8
BLACK
6
CONTINUOUS
10
70.1048
20
-75.0495
11
70.0918
21
-75.0565
0
LINE
8
BLACK
6
CONTINUOUS
10
70.0918
20
-75.0565
11
70.0777
21
-75.0607
0
LINE
8
BLACK
6
CONTINUOUS
10
70.0777
20
-75.0607
11
70.0631
21
-75.0622
0
LINE
8
BLACK
6
CONTINUOUS
10
70.0631
20
-75.0622
11
70.0485
21
-75.0607
0
LINE
8
BLACK
6
CONTINUOUS
10
70.0485
20
-75.0607
11
70.0344
21
-75.0565
0
LINE
8
BLACK
6
CONTINUOUS
10
70.0344
20
-75.0565
11
70.0214
21
-75.0495
0
LINE
8
BLACK
6
CONTINUOUS
10
70.0214
20
-75.0495
11
70.0101
21
-75.0402
0
LINE
8
BLACK
6
CONTINUOUS
10
70.0101
20
-75.0402
11
69.0732
21
-74.1033
0
LINE
8
BLACK
6
CONTINUOUS
10
69.0732
20
-74.1033
11
69.0638
21
-74.0919
0
LINE
8
BLACK
6
CONTINUOUS
10
69.0638
20
-74.0919
11
69.0569
21
-74.079
0
LINE
8
BLACK
6
CONTINUOUS
10
69.0569
20
-74.079
11
69.0526
21
-74.0649
0
LINE
8
BLACK
6
CONTINUOUS
10
69.0526
20
-74.0649
11
69.0512
21
-74.0503
0
LINE
8
BLACK
6
CONTINUOUS
10
69.0512
20
-74.0503
11
69.0526
21
-74.0356
0
LINE
8
BLACK
6
CONTINUOUS
10
69.0526
20
-74.0356
11
69.0569
21
-74.0216
0
LINE
8
BLACK
6
CONTINUOUS
10
69.0569
20
-74.0216
11
69.0638
21
-74.0086
0
LINE
8
BLACK
6
CONTINUOUS
10
69.0638
20
-74.0086
11
69.0732
21
-73.9972
0
LINE
8
BLACK
6
CONTINUOUS
10
69.0732
20
-73.9972
11
69.1792
21
-73.8912
0
LINE
8
BLACK
6
CONTINUOUS
10
69.1792
20
-73.8912
11
69.1906
21
-73.8818
0
LINE
8
BLACK
6
CONTINUOUS
10
69.1906
20
-73.8818
11
69.2035
21
-73.8749
0
LINE
8
BLACK
6
CONTINUOUS
10
69.2035
20
-73.8749
11
69.2176
21
-73.8706
0
LINE
8
BLACK
6
CONTINUOUS
10
69.2176
20
-73.8706
11
69.2323
21
-73.8692
0
LINE
8
BLACK
6
CONTINUOUS
10
69.2323
20
-73.8692
11
69.2469
21
-73.8706
0
LINE
8
BLACK
6
CONTINUOUS
10
72.7824
20
-73.8706
11
72.7965
21
-73.8749
0
LINE
8
BLACK
6
CONTINUOUS
10
72.7965
20
-73.8749
11
72.8095
21
-73.8818
0
LINE
8
BLACK
6
CONTINUOUS
10
72.8095
20
-73.8818
11
72.8208
21
-73.8912
0
LINE
8
BLACK
6
CONTINUOUS
10
72.8208
20
-73.8912
11
72.9269
21
-73.9972
0
LINE
8
BLACK
6
CONTINUOUS
10
72.9269
20
-73.9972
11
72.9362
21
-74.0086
0
LINE
8
BLACK
6
CONTINUOUS
10
72.9362
20
-74.0086
11
72.9431
21
-74.0216
0
LINE
8
BLACK
6
CONTINUOUS
10
72.9431
20
-74.0216
11
72.9474
21
-74.0356
0
LINE
8
BLACK
6
CONTINUOUS
10
72.9474
20
-74.0356
11
72.9489
21
-74.0503
0
LINE
8
BLACK
6
CONTINUOUS
10
72.9489
20
-74.0503
11
72.9474
21
-74.0649
0
LINE
8
BLACK
6
CONTINUOUS
10
72.9474
20
-74.0649
11
72.9431
21
-74.079
0
LINE
8
BLACK
6
CONTINUOUS
10
72.9431
20
-74.079
11
72.9362
21
-74.0919
0
LINE
8
BLACK
6
CONTINUOUS
10
72.9362
20
-74.0919
11
72.9269
21
-74.1033
0
LINE
8
BLACK
6
CONTINUOUS
10
72.9269
20
-74.1033
11
71.99
21
-75.0402
0
LINE
8
BLACK
6
CONTINUOUS
10
71.99
20
-75.0402
11
71.9786
21
-75.0495
0
LINE
8
BLACK
6
CONTINUOUS
10
71.9786
20
-75.0495
11
71.9656
21
-75.0565
0
LINE
8
BLACK
6
CONTINUOUS
10
71.9656
20
-75.0565
11
71.9516
21
-75.0607
0
LINE
8
BLACK
6
CONTINUOUS
10
71.9516
20
-75.0607
11
71.9369
21
-75.0622
0
LINE
8
BLACK
6
CONTINUOUS
10
71.9369
20
-75.0622
11
71.9223
21
-75.0607
0
LINE
8
BLACK
6
CONTINUOUS
10
71.9223
20
-75.0607
11
71.9082
21
-75.0565
0
LINE
8
BLACK
6
CONTINUOUS
10
71.9082
20
-75.0565
11
71.8953
21
-75.0495
0
LINE
8
BLACK
6
CONTINUOUS
10
71.8953
20
-75.0495
11
71.8839
21
-75.0402
0
LINE
8
BLACK
6
CONTINUOUS
10
71.8839
20
-75.0402
11
71.7778
21
-74.9341
0
LINE
8
BLACK
6
CONTINUOUS
10
71.7778
20
-74.9341
11
71.7685
21
-74.9228
0
LINE
8
BLACK
6
CONTINUOUS
10
71.7685
20
-74.9228
11
71.7616
21
-74.9098
0
LINE
8
BLACK
6
CONTINUOUS
10
71.7616
20
-74.9098
11
71.7573
21
-74.8957
0
LINE
8
BLACK
6
CONTINUOUS
10
71.7573
20
-74.8957
11
71.7559
21
-74.8811
0
LINE
8
BLACK
6
CONTINUOUS
10
71.7559
20
-74.8811
11
71.7573
21
-74.8665
0
LINE
8
BLACK
6
CONTINUOUS
10
71.7573
20
-74.8665
11
71.7616
21
-74.8524
0
LINE
8
BLACK
6
CONTINUOUS
10
71.7616
20
-74.8524
11
71.7685
21
-74.8394
0
LINE
8
BLACK
6
CONTINUOUS
10
71.7685
20
-74.8394
11
71.7778
21
-74.8281
0
LINE
8
BLACK
6
CONTINUOUS
10
71.7778
20
-74.8281
11
72.7148
21
-73.8912
0
LINE
8
BLACK
6
CONTINUOUS
10
72.7148
20
-73.8912
11
72.7261
21
-73.8818
0
LINE
8
BLACK
6
CONTINUOUS
10
72.7261
20
-73.8818
11
72.7391
21
-73.8749
0
LINE
8
BLACK
6
CONTINUOUS
10
72.7391
20
-73.8749
11
72.7532
21
-73.8706
0
LINE
8
BLACK
6
CONTINUOUS
10
72.7532
20
-73.8706
11
72.7678
21
-73.8692
0
LINE
8
BLACK
6
CONTINUOUS
10
72.7678
20
-73.8692
11
72.7824
21
-73.8706
0
LINE
8
BLACK
6
CONTINUOUS
10
54.2469
20
-73.8706
11
54.2609
21
-73.8749
0
LINE
8
BLACK
6
CONTINUOUS
10
54.2609
20
-73.8749
11
54.2739
21
-73.8818
0
LINE
8
BLACK
6
CONTINUOUS
10
54.2739
20
-73.8818
11
54.2853
21
-73.8912
0
LINE
8
BLACK
6
CONTINUOUS
10
54.2853
20
-73.8912
11
55.2222
21
-74.8281
0
LINE
8
BLACK
6
CONTINUOUS
10
55.2222
20
-74.8281
11
55.2315
21
-74.8394
0
LINE
8
BLACK
6
CONTINUOUS
10
55.2315
20
-74.8394
11
55.2384
21
-74.8524
0
LINE
8
BLACK
6
CONTINUOUS
10
55.2384
20
-74.8524
11
55.2427
21
-74.8665
0
LINE
8
BLACK
6
CONTINUOUS
10
55.2427
20
-74.8665
11
55.2441
21
-74.8811
0
LINE
8
BLACK
6
CONTINUOUS
10
55.2441
20
-74.8811
11
55.2427
21
-74.8957
0
LINE
8
BLACK
6
CONTINUOUS
10
55.2427
20
-74.8957
11
55.2384
21
-74.9098
0
LINE
8
BLACK
6
CONTINUOUS
10
55.2384
20
-74.9098
11
55.2315
21
-74.9228
0
LINE
8
BLACK
6
CONTINUOUS
10
55.2315
20
-74.9228
11
55.2222
21
-74.9341
0
LINE
8
BLACK
6
CONTINUOUS
10
55.2222
20
-74.9341
11
55.1161
21
-75.0402
0
LINE
8
BLACK
6
CONTINUOUS
10
55.1161
20
-75.0402
11
55.1048
21
-75.0495
0
LINE
8
BLACK
6
CONTINUOUS
10
55.1048
20
-75.0495
11
55.0918
21
-75.0565
0
LINE
8
BLACK
6
CONTINUOUS
10
55.0918
20
-75.0565
11
55.0777
21
-75.0607
0
LINE
8
BLACK
6
CONTINUOUS
10
55.0777
20
-75.0607
11
55.0631
21
-75.0622
0
LINE
8
BLACK
6
CONTINUOUS
10
55.0631
20
-75.0622
11
55.0485
21
-75.0607
0
LINE
8
BLACK
6
CONTINUOUS
10
55.0485
20
-75.0607
11
55.0344
21
-75.0565
0
LINE
8
BLACK
6
CONTINUOUS
10
55.0344
20
-75.0565
11
55.0214
21
-75.0495
0
LINE
8
BLACK
6
CONTINUOUS
10
55.0214
20
-75.0495
11
55.0101
21
-75.0402
0
LINE
8
BLACK
6
CONTINUOUS
10
55.0101
20
-75.0402
11
54.0731
21
-74.1033
0
LINE
8
BLACK
6
CONTINUOUS
10
54.0731
20
-74.1033
11
54.0638
21
-74.0919
0
LINE
8
BLACK
6
CONTINUOUS
10
54.0638
20
-74.0919
11
54.0569
21
-74.079
0
LINE
8
BLACK
6
CONTINUOUS
10
54.0569
20
-74.079
11
54.0526
21
-74.0649
0
LINE
8
BLACK
6
CONTINUOUS
10
54.0526
20
-74.0649
11
54.0512
21
-74.0503
0
LINE
8
BLACK
6
CONTINUOUS
10
54.0512
20
-74.0503
11
54.0526
21
-74.0356
0
LINE
8
BLACK
6
CONTINUOUS
10
54.0526
20
-74.0356
11
54.0569
21
-74.0216
0
LINE
8
BLACK
6
CONTINUOUS
10
54.0569
20
-74.0216
11
54.0638
21
-74.0086
0
LINE
8
BLACK
6
CONTINUOUS
10
54.0638
20
-74.0086
11
54.0731
21
-73.9972
0
LINE
8
BLACK
6
CONTINUOUS
10
54.0731
20
-73.9972
11
54.1792
21
-73.8912
0
LINE
8
BLACK
6
CONTINUOUS
10
54.1792
20
-73.8912
11
54.1906
21
-73.8818
0
LINE
8
BLACK
6
CONTINUOUS
10
54.1906
20
-73.8818
11
54.2035
21
-73.8749
0
LINE
8
BLACK
6
CONTINUOUS
10
54.2035
20
-73.8749
11
54.2176
21
-73.8706
0
LINE
8
BLACK
6
CONTINUOUS
10
54.2176
20
-73.8706
11
54.2322
21
-73.8692
0
LINE
8
BLACK
6
CONTINUOUS
10
54.2322
20
-73.8692
11
54.2469
21
-73.8706
0
LINE
8
BLACK
6
CONTINUOUS
10
57.7824
20
-73.8706
11
57.7965
21
-73.8749
0
LINE
8
BLACK
6
CONTINUOUS
10
57.7965
20
-73.8749
11
57.8094
21
-73.8818
0
LINE
8
BLACK
6
CONTINUOUS
10
57.8094
20
-73.8818
11
57.8208
21
-73.8912
0
LINE
8
BLACK
6
CONTINUOUS
10
57.8208
20
-73.8912
11
57.9269
21
-73.9972
0
LINE
8
BLACK
6
CONTINUOUS
10
57.9269
20
-73.9972
11
57.9362
21
-74.0086
0
LINE
8
BLACK
6
CONTINUOUS
10
57.9362
20
-74.0086
11
57.9431
21
-74.0216
0
LINE
8
BLACK
6
CONTINUOUS
10
57.9431
20
-74.0216
11
57.9474
21
-74.0356
0
LINE
8
BLACK
6
CONTINUOUS
10
57.9474
20
-74.0356
11
57.9488
21
-74.0503
0
LINE
8
BLACK
6
CONTINUOUS
10
57.9488
20
-74.0503
11
57.9474
21
-74.0649
0
LINE
8
BLACK
6
CONTINUOUS
10
57.9474
20
-74.0649
11
57.9431
21
-74.079
0
LINE
8
BLACK
6
CONTINUOUS
10
57.9431
20
-74.079
11
57.9362
21
-74.0919
0
LINE
8
BLACK
6
CONTINUOUS
10
57.9362
20
-74.0919
11
57.9269
21
-74.1033
0
LINE
8
BLACK
6
CONTINUOUS
10
57.9269
20
-74.1033
11
56.99
21
-75.0402
0
LINE
8
BLACK
6
CONTINUOUS
10
56.99
20
-75.0402
11
56.9786
21
-75.0495
0
LINE
8
BLACK
6
CONTINUOUS
10
56.9786
20
-75.0495
11
56.9656
21
-75.0565
0
LINE
8
BLACK
6
CONTINUOUS
10
56.9656
20
-75.0565
11
56.9515
21
-75.0607
0
LINE
8
BLACK
6
CONTINUOUS
10
56.9515
20
-75.0607
11
56.9369
21
-75.0622
0
LINE
8
BLACK
6
CONTINUOUS
10
56.9369
20
-75.0622
11
56.9223
21
-75.0607
0
LINE
8
BLACK
6
CONTINUOUS
10
56.9223
20
-75.0607
11
56.9082
21
-75.0565
0
LINE
8
BLACK
6
CONTINUOUS
10
56.9082
20
-75.0565
11
56.8952
21
-75.0495
0
LINE
8
BLACK
6
CONTINUOUS
10
56.8952
20
-75.0495
11
56.8839
21
-75.0402
0
LINE
8
BLACK
6
CONTINUOUS
10
56.8839
20
-75.0402
11
56.7778
21
-74.9341
0
LINE
8
BLACK
6
CONTINUOUS
10
56.7778
20
-74.9341
11
56.7685
21
-74.9228
0
LINE
8
BLACK
6
CONTINUOUS
10
56.7685
20
-74.9228
11
56.7616
21
-74.9098
0
LINE
8
BLACK
6
CONTINUOUS
10
56.7616
20
-74.9098
11
56.7573
21
-74.8957
0
LINE
8
BLACK
6
CONTINUOUS
10
56.7573
20
-74.8957
11
56.7559
21
-74.8811
0
LINE
8
BLACK
6
CONTINUOUS
10
56.7559
20
-74.8811
11
56.7573
21
-74.8665
0
LINE
8
BLACK
6
CONTINUOUS
10
56.7573
20
-74.8665
11
56.7616
21
-74.8524
0
LINE
8
BLACK
6
CONTINUOUS
10
56.7616
20
-74.8524
11
56.7685
21
-74.8394
0
LINE
8
BLACK
6
CONTINUOUS
10
56.7685
20
-74.8394
11
56.7778
21
-74.8281
0
LINE
8
BLACK
6
CONTINUOUS
10
56.7778
20
-74.8281
11
57.7147
21
-73.8912
0
LINE
8
BLACK
6
CONTINUOUS
10
57.7147
20
-73.8912
11
57.7261
21
-73.8818
0
LINE
8
BLACK
6
CONTINUOUS
10
57.7261
20
-73.8818
11
57.7391
21
-73.8749
0
LINE
8
BLACK
6
CONTINUOUS
10
57.7391
20
-73.8749
11
57.7531
21
-73.8706
0
LINE
8
BLACK
6
CONTINUOUS
10
57.7531
20
-73.8706
11
57.7678
21
-73.8692
0
LINE
8
BLACK
6
CONTINUOUS
10
57.7678
20
-73.8692
11
57.7824
21
-73.8706
0
LINE
8
BLACK
6
CONTINUOUS
10
69.6004
20
-73.5171
11
69.6145
21
-73.5213
0
LINE
8
BLACK
6
CONTINUOUS
10
69.6145
20
-73.5213
11
69.6275
21
-73.5283
0
LINE
8
BLACK
6
CONTINUOUS
10
69.6275
20
-73.5283
11
69.6388
21
-73.5376
0
LINE
8
BLACK
6
CONTINUOUS
10
69.6388
20
-73.5376
11
70.5758
21
-74.4745
0
LINE
8
BLACK
6
CONTINUOUS
10
70.5758
20
-74.4745
11
70.5851
21
-74.4859
0
LINE
8
BLACK
6
CONTINUOUS
10
70.5851
20
-74.4859
11
70.592
21
-74.4988
0
LINE
8
BLACK
6
CONTINUOUS
10
70.592
20
-74.4988
11
70.5963
21
-74.5129
0
LINE
8
BLACK
6
CONTINUOUS
10
70.5963
20
-74.5129
11
70.5977
21
-74.5275
0
LINE
8
BLACK
6
CONTINUOUS
10
70.5977
20
-74.5275
11
70.5963
21
-74.5422
0
LINE
8
BLACK
6
CONTINUOUS
10
70.5963
20
-74.5422
11
70.592
21
-74.5563
0
LINE
8
BLACK
6
CONTINUOUS
10
70.592
20
-74.5563
11
70.5851
21
-74.5692
0
LINE
8
BLACK
6
CONTINUOUS
10
70.5851
20
-74.5692
11
70.5758
21
-74.5806
0
LINE
8
BLACK
6
CONTINUOUS
10
70.5758
20
-74.5806
11
70.4697
21
-74.6866
0
LINE
8
BLACK
6
CONTINUOUS
10
70.4697
20
-74.6866
11
70.4583
21
-74.696
0
LINE
8
BLACK
6
CONTINUOUS
10
70.4583
20
-74.696
11
70.4454
21
-74.7029
0
LINE
8
BLACK
6
CONTINUOUS
10
70.4454
20
-74.7029
11
70.4313
21
-74.7072
0
LINE
8
BLACK
6
CONTINUOUS
10
70.4313
20
-74.7072
11
70.4167
21
-74.7086
0
LINE
8
BLACK
6
CONTINUOUS
10
70.4167
20
-74.7086
11
70.402
21
-74.7072
0
LINE
8
BLACK
6
CONTINUOUS
10
70.402
20
-74.7072
11
70.388
21
-74.7029
0
LINE
8
BLACK
6
CONTINUOUS
10
70.388
20
-74.7029
11
70.375
21
-74.696
0
LINE
8
BLACK
6
CONTINUOUS
10
70.375
20
-74.696
11
70.3636
21
-74.6866
0
LINE
8
BLACK
6
CONTINUOUS
10
70.3636
20
-74.6866
11
69.4267
21
-73.7497
0
LINE
8
BLACK
6
CONTINUOUS
10
69.4267
20
-73.7497
11
69.4174
21
-73.7384
0
LINE
8
BLACK
6
CONTINUOUS
10
69.4174
20
-73.7384
11
69.4104
21
-73.7254
0
LINE
8
BLACK
6
CONTINUOUS
10
69.4104
20
-73.7254
11
69.4062
21
-73.7113
0
LINE
8
BLACK
6
CONTINUOUS
10
69.4062
20
-73.7113
11
69.4047
21
-73.6967
0
LINE
8
BLACK
6
CONTINUOUS
10
69.4047
20
-73.6967
11
69.4062
21
-73.6821
0
LINE
8
BLACK
6
CONTINUOUS
10
69.4062
20
-73.6821
11
69.4104
21
-73.668
0
LINE
8
BLACK
6
CONTINUOUS
10
69.4104
20
-73.668
11
69.4174
21
-73.655
0
LINE
8
BLACK
6
CONTINUOUS
10
69.4174
20
-73.655
11
69.4267
21
-73.6437
0
LINE
8
BLACK
6
CONTINUOUS
10
69.4267
20
-73.6437
11
69.5328
21
-73.5376
0
LINE
8
BLACK
6
CONTINUOUS
10
69.5328
20
-73.5376
11
69.5441
21
-73.5283
0
LINE
8
BLACK
6
CONTINUOUS
10
69.5441
20
-73.5283
11
69.5571
21
-73.5213
0
LINE
8
BLACK
6
CONTINUOUS
10
69.5571
20
-73.5213
11
69.5712
21
-73.5171
0
LINE
8
BLACK
6
CONTINUOUS
10
69.5712
20
-73.5171
11
69.5858
21
-73.5156
0
LINE
8
BLACK
6
CONTINUOUS
10
69.5858
20
-73.5156
11
69.6004
21
-73.5171
0
LINE
8
BLACK
6
CONTINUOUS
10
72.4289
20
-73.5171
11
72.4429
21
-73.5213
0
LINE
8
BLACK
6
CONTINUOUS
10
72.4429
20
-73.5213
11
72.4559
21
-73.5283
0
LINE
8
BLACK
6
CONTINUOUS
10
72.4559
20
-73.5283
11
72.4673
21
-73.5376
0
LINE
8
BLACK
6
CONTINUOUS
10
72.4673
20
-73.5376
11
72.5733
21
-73.6437
0
LINE
8
BLACK
6
CONTINUOUS
10
72.5733
20
-73.6437
11
72.5827
21
-73.655
0
LINE
8
BLACK
6
CONTINUOUS
10
72.5827
20
-73.655
11
72.5896
21
-73.668
0
LINE
8
BLACK
6
CONTINUOUS
10
72.5896
20
-73.668
11
72.5939
21
-73.6821
0
LINE
8
BLACK
6
CONTINUOUS
10
72.5939
20
-73.6821
11
72.5953
21
-73.6967
0
LINE
8
BLACK
6
CONTINUOUS
10
72.5953
20
-73.6967
11
72.5939
21
-73.7113
0
LINE
8
BLACK
6
CONTINUOUS
10
72.5939
20
-73.7113
11
72.5896
21
-73.7254
0
LINE
8
BLACK
6
CONTINUOUS
10
72.5896
20
-73.7254
11
72.5827
21
-73.7384
0
LINE
8
BLACK
6
CONTINUOUS
10
72.5827
20
-73.7384
11
72.5733
21
-73.7497
0
LINE
8
BLACK
6
CONTINUOUS
10
72.5733
20
-73.7497
11
71.6364
21
-74.6866
0
LINE
8
BLACK
6
CONTINUOUS
10
71.6364
20
-74.6866
11
71.625
21
-74.696
0
LINE
8
BLACK
6
CONTINUOUS
10
71.625
20
-74.696
11
71.6121
21
-74.7029
0
LINE
8
BLACK
6
CONTINUOUS
10
71.6121
20
-74.7029
11
71.598
21
-74.7072
0
LINE
8
BLACK
6
CONTINUOUS
10
71.598
20
-74.7072
11
71.5834
21
-74.7086
0
LINE
8
BLACK
6
CONTINUOUS
10
71.5834
20
-74.7086
11
71.5687
21
-74.7072
0
LINE
8
BLACK
6
CONTINUOUS
10
71.5687
20
-74.7072
11
71.5547
21
-74.7029
0
LINE
8
BLACK
6
CONTINUOUS
10
71.5547
20
-74.7029
11
71.5417
21
-74.696
0
LINE
8
BLACK
6
CONTINUOUS
10
71.5417
20
-74.696
11
71.5303
21
-74.6866
0
LINE
8
BLACK
6
CONTINUOUS
10
71.5303
20
-74.6866
11
71.4243
21
-74.5806
0
LINE
8
BLACK
6
CONTINUOUS
10
71.4243
20
-74.5806
11
71.415
21
-74.5692
0
LINE
8
BLACK
6
CONTINUOUS
10
71.415
20
-74.5692
11
71.408
21
-74.5563
0
LINE
8
BLACK
6
CONTINUOUS
10
71.408
20
-74.5563
11
71.4038
21
-74.5422
0
LINE
8
BLACK
6
CONTINUOUS
10
71.4038
20
-74.5422
11
71.4023
21
-74.5275
0
LINE
8
BLACK
6
CONTINUOUS
10
71.4023
20
-74.5275
11
71.4038
21
-74.5129
0
LINE
8
BLACK
6
CONTINUOUS
10
71.4038
20
-74.5129
11
71.408
21
-74.4988
0
LINE
8
BLACK
6
CONTINUOUS
10
71.408
20
-74.4988
11
71.415
21
-74.4859
0
LINE
8
BLACK
6
CONTINUOUS
10
71.415
20
-74.4859
11
71.4243
21
-74.4745
0
LINE
8
BLACK
6
CONTINUOUS
10
71.4243
20
-74.4745
11
72.3612
21
-73.5376
0
LINE
8
BLACK
6
CONTINUOUS
10
72.3612
20
-73.5376
11
72.3726
21
-73.5283
0
LINE
8
BLACK
6
CONTINUOUS
10
72.3726
20
-73.5283
11
72.3855
21
-73.5213
0
LINE
8
BLACK
6
CONTINUOUS
10
72.3855
20
-73.5213
11
72.3996
21
-73.5171
0
LINE
8
BLACK
6
CONTINUOUS
10
72.3996
20
-73.5171
11
72.4142
21
-73.5156
0
LINE
8
BLACK
6
CONTINUOUS
10
72.4142
20
-73.5156
11
72.4289
21
-73.5171
0
LINE
8
BLACK
6
CONTINUOUS
10
54.6004
20
-73.5171
11
54.6145
21
-73.5213
0
LINE
8
BLACK
6
CONTINUOUS
10
54.6145
20
-73.5213
11
54.6275
21
-73.5283
0
LINE
8
BLACK
6
CONTINUOUS
10
54.6275
20
-73.5283
11
54.6388
21
-73.5376
0
LINE
8
BLACK
6
CONTINUOUS
10
54.6388
20
-73.5376
11
55.5757
21
-74.4745
0
LINE
8
BLACK
6
CONTINUOUS
10
55.5757
20
-74.4745
11
55.5851
21
-74.4859
0
LINE
8
BLACK
6
CONTINUOUS
10
55.5851
20
-74.4859
11
55.592
21
-74.4988
0
LINE
8
BLACK
6
CONTINUOUS
10
55.592
20
-74.4988
11
55.5963
21
-74.5129
0
LINE
8
BLACK
6
CONTINUOUS
10
55.5963
20
-74.5129
11
55.5977
21
-74.5275
0
LINE
8
BLACK
6
CONTINUOUS
10
55.5977
20
-74.5275
11
55.5963
21
-74.5422
0
LINE
8
BLACK
6
CONTINUOUS
10
55.5963
20
-74.5422
11
55.592
21
-74.5563
0
LINE
8
BLACK
6
CONTINUOUS
10
55.592
20
-74.5563
11
55.5851
21
-74.5692
0
LINE
8
BLACK
6
CONTINUOUS
10
55.5851
20
-74.5692
11
55.5757
21
-74.5806
0
LINE
8
BLACK
6
CONTINUOUS
10
55.5757
20
-74.5806
11
55.4697
21
-74.6866
0
LINE
8
BLACK
6
CONTINUOUS
10
55.4697
20
-74.6866
11
55.4583
21
-74.696
0
LINE
8
BLACK
6
CONTINUOUS
10
55.4583
20
-74.696
11
55.4453
21
-74.7029
0
LINE
8
BLACK
6
CONTINUOUS
10
55.4453
20
-74.7029
11
55.4313
21
-74.7072
0
LINE
8
BLACK
6
CONTINUOUS
10
55.4313
20
-74.7072
11
55.4166
21
-74.7086
0
LINE
8
BLACK
6
CONTINUOUS
10
55.4166
20
-74.7086
11
55.402
21
-74.7072
0
LINE
8
BLACK
6
CONTINUOUS
10
55.402
20
-74.7072
11
55.3879
21
-74.7029
0
LINE
8
BLACK
6
CONTINUOUS
10
55.3879
20
-74.7029
11
55.375
21
-74.696
0
LINE
8
BLACK
6
CONTINUOUS
10
55.375
20
-74.696
11
55.3636
21
-74.6866
0
LINE
8
BLACK
6
CONTINUOUS
10
55.3636
20
-74.6866
11
54.4267
21
-73.7497
0
LINE
8
BLACK
6
CONTINUOUS
10
54.4267
20
-73.7497
11
54.4174
21
-73.7384
0
LINE
8
BLACK
6
CONTINUOUS
10
54.4174
20
-73.7384
11
54.4104
21
-73.7254
0
LINE
8
BLACK
6
CONTINUOUS
10
54.4104
20
-73.7254
11
54.4062
21
-73.7113
0
LINE
8
BLACK
6
CONTINUOUS
10
54.4062
20
-73.7113
11
54.4047
21
-73.6967
0
LINE
8
BLACK
6
CONTINUOUS
10
54.4047
20
-73.6967
11
54.4062
21
-73.6821
0
LINE
8
BLACK
6
CONTINUOUS
10
54.4062
20
-73.6821
11
54.4104
21
-73.668
0
LINE
8
BLACK
6
CONTINUOUS
10
54.4104
20
-73.668
11
54.4174
21
-73.655
0
LINE
8
BLACK
6
CONTINUOUS
10
54.4174
20
-73.655
11
54.4267
21
-73.6437
0
LINE
8
BLACK
6
CONTINUOUS
10
54.4267
20
-73.6437
11
54.5328
21
-73.5376
0
LINE
8
BLACK
6
CONTINUOUS
10
54.5328
20
-73.5376
11
54.5441
21
-73.5283
0
LINE
8
BLACK
6
CONTINUOUS
10
54.5441
20
-73.5283
11
54.5571
21
-73.5213
0
LINE
8
BLACK
6
CONTINUOUS
10
54.5571
20
-73.5213
11
54.5712
21
-73.5171
0
LINE
8
BLACK
6
CONTINUOUS
10
54.5712
20
-73.5171
11
54.5858
21
-73.5156
0
LINE
8
BLACK
6
CONTINUOUS
10
54.5858
20
-73.5156
11
54.6004
21
-73.5171
0
LINE
8
BLACK
6
CONTINUOUS
10
57.4288
20
-73.5171
11
57.4429
21
-73.5213
0
LINE
8
BLACK
6
CONTINUOUS
10
57.4429
20
-73.5213
11
57.4559
21
-73.5283
0
LINE
8
BLACK
6
CONTINUOUS
10
57.4559
20
-73.5283
11
57.4672
21
-73.5376
0
LINE
8
BLACK
6
CONTINUOUS
10
57.4672
20
-73.5376
11
57.5733
21
-73.6437
0
LINE
8
BLACK
6
CONTINUOUS
10
57.5733
20
-73.6437
11
57.5826
21
-73.655
0
LINE
8
BLACK
6
CONTINUOUS
10
57.5826
20
-73.655
11
57.5896
21
-73.668
0
LINE
8
BLACK
6
CONTINUOUS
10
57.5896
20
-73.668
11
57.5938
21
-73.6821
0
LINE
8
BLACK
6
CONTINUOUS
10
57.5938
20
-73.6821
11
57.5953
21
-73.6967
0
LINE
8
BLACK
6
CONTINUOUS
10
57.5953
20
-73.6967
11
57.5938
21
-73.7113
0
LINE
8
BLACK
6
CONTINUOUS
10
57.5938
20
-73.7113
11
57.5896
21
-73.7254
0
LINE
8
BLACK
6
CONTINUOUS
10
57.5896
20
-73.7254
11
57.5826
21
-73.7384
0
LINE
8
BLACK
6
CONTINUOUS
10
57.5826
20
-73.7384
11
57.5733
21
-73.7497
0
LINE
8
BLACK
6
CONTINUOUS
10
57.5733
20
-73.7497
11
56.6364
21
-74.6866
0
LINE
8
BLACK
6
CONTINUOUS
10
56.6364
20
-74.6866
11
56.625
21
-74.696
0
LINE
8
BLACK
6
CONTINUOUS
10
56.625
20
-74.696
11
56.6121
21
-74.7029
0
LINE
8
BLACK
6
CONTINUOUS
10
56.6121
20
-74.7029
11
56.598
21
-74.7072
0
LINE
8
BLACK
6
CONTINUOUS
10
56.598
20
-74.7072
11
56.5834
21
-74.7086
0
LINE
8
BLACK
6
CONTINUOUS
10
56.5834
20
-74.7086
11
56.5687
21
-74.7072
0
LINE
8
BLACK
6
CONTINUOUS
10
56.5687
20
-74.7072
11
56.5547
21
-74.7029
0
LINE
8
BLACK
6
CONTINUOUS
10
56.5547
20
-74.7029
11
56.5417
21
-74.696
0
LINE
8
BLACK
6
CONTINUOUS
10
56.5417
20
-74.696
11
56.5303
21
-74.6866
0
LINE
8
BLACK
6
CONTINUOUS
10
56.5303
20
-74.6866
11
56.4243
21
-74.5806
0
LINE
8
BLACK
6
CONTINUOUS
10
56.4243
20
-74.5806
11
56.4149
21
-74.5692
0
LINE
8
BLACK
6
CONTINUOUS
10
56.4149
20
-74.5692
11
56.408
21
-74.5563
0
LINE
8
BLACK
6
CONTINUOUS
10
56.408
20
-74.5563
11
56.4037
21
-74.5422
0
LINE
8
BLACK
6
CONTINUOUS
10
56.4037
20
-74.5422
11
56.4023
21
-74.5275
0
LINE
8
BLACK
6
CONTINUOUS
10
56.4023
20
-74.5275
11
56.4037
21
-74.5129
0
LINE
8
BLACK
6
CONTINUOUS
10
56.4037
20
-74.5129
11
56.408
21
-74.4988
0
LINE
8
BLACK
6
CONTINUOUS
10
56.408
20
-74.4988
11
56.4149
21
-74.4859
0
LINE
8
BLACK
6
CONTINUOUS
10
56.4149
20
-74.4859
11
56.4243
21
-74.4745
0
LINE
8
BLACK
6
CONTINUOUS
10
56.4243
20
-74.4745
11
57.3612
21
-73.5376
0
LINE
8
BLACK
6
CONTINUOUS
10
57.3612
20
-73.5376
11
57.3725
21
-73.5283
0
LINE
8
BLACK
6
CONTINUOUS
10
57.3725
20
-73.5283
11
57.3855
21
-73.5213
0
LINE
8
BLACK
6
CONTINUOUS
10
57.3855
20
-73.5213
11
57.3996
21
-73.5171
0
LINE
8
BLACK
6
CONTINUOUS
10
57.3996
20
-73.5171
11
57.4142
21
-73.5156
0
LINE
8
BLACK
6
CONTINUOUS
10
57.4142
20
-73.5156
11
57.4288
21
-73.5171
0
LINE
8
BLACK
6
CONTINUOUS
10
76.6613
20
-73.6828
11
76.689
21
-73.6912
0
LINE
8
BLACK
6
CONTINUOUS
10
76.689
20
-73.6912
11
76.7145
21
-73.7049
0
LINE
8
BLACK
6
CONTINUOUS
10
76.7145
20
-73.7049
11
76.7368
21
-73.7232
0
LINE
8
BLACK
6
CONTINUOUS
10
76.7368
20
-73.7232
11
76.7552
21
-73.7456
0
LINE
8
BLACK
6
CONTINUOUS
10
76.7552
20
-73.7456
11
76.7688
21
-73.7711
0
LINE
8
BLACK
6
CONTINUOUS
10
76.7688
20
-73.7711
11
76.7772
21
-73.7987
0
LINE
8
BLACK
6
CONTINUOUS
10
76.7772
20
-73.7987
11
76.78
21
-73.8275
0
LINE
8
BLACK
6
CONTINUOUS
10
76.78
20
-73.8275
11
76.78
21
-74.1725
0
LINE
8
BLACK
6
CONTINUOUS
10
76.78
20
-74.1725
11
76.7772
21
-74.2013
0
LINE
8
BLACK
6
CONTINUOUS
10
76.7772
20
-74.2013
11
76.7688
21
-74.2289
0
LINE
8
BLACK
6
CONTINUOUS
10
76.7688
20
-74.2289
11
76.7552
21
-74.2544
0
LINE
8
BLACK
6
CONTINUOUS
10
76.7552
20
-74.2544
11
76.7368
21
-74.2768
0
LINE
8
BLACK
6
CONTINUOUS
10
76.7368
20
-74.2768
11
76.7145
21
-74.2951
0
LINE
8
BLACK
6
CONTINUOUS
10
76.7145
20
-74.2951
11
76.689
21
-74.3088
0
LINE
8
BLACK
6
CONTINUOUS
10
76.689
20
-74.3088
11
76.6613
21
-74.3172
0
LINE
8
BLACK
6
CONTINUOUS
10
76.6613
20
-74.3172
11
76.6325
21
-74.32
0
LINE
8
BLACK
6
CONTINUOUS
10
76.6325
20
-74.32
11
76.3375
21
-74.32
0
LINE
8
BLACK
6
CONTINUOUS
10
76.3375
20
-74.32
11
76.3087
21
-74.3172
0
LINE
8
BLACK
6
CONTINUOUS
10
76.3087
20
-74.3172
11
76.2811
21
-74.3088
0
LINE
8
BLACK
6
CONTINUOUS
10
76.2811
20
-74.3088
11
76.2556
21
-74.2951
0
LINE
8
BLACK
6
CONTINUOUS
10
76.2556
20
-74.2951
11
76.2332
21
-74.2768
0
LINE
8
BLACK
6
CONTINUOUS
10
76.2332
20
-74.2768
11
76.2149
21
-74.2544
0
LINE
8
BLACK
6
CONTINUOUS
10
76.2149
20
-74.2544
11
76.2012
21
-74.2289
0
LINE
8
BLACK
6
CONTINUOUS
10
76.2012
20
-74.2289
11
76.1929
21
-74.2013
0
LINE
8
BLACK
6
CONTINUOUS
10
76.1929
20
-74.2013
11
76.19
21
-74.1725
0
LINE
8
BLACK
6
CONTINUOUS
10
76.19
20
-74.1725
11
76.19
21
-73.8275
0
LINE
8
BLACK
6
CONTINUOUS
10
76.19
20
-73.8275
11
76.1929
21
-73.7987
0
LINE
8
BLACK
6
CONTINUOUS
10
76.1929
20
-73.7987
11
76.2012
21
-73.7711
0
LINE
8
BLACK
6
CONTINUOUS
10
76.2012
20
-73.7711
11
76.2149
21
-73.7456
0
LINE
8
BLACK
6
CONTINUOUS
10
76.2149
20
-73.7456
11
76.2332
21
-73.7232
0
LINE
8
BLACK
6
CONTINUOUS
10
76.2332
20
-73.7232
11
76.2556
21
-73.7049
0
LINE
8
BLACK
6
CONTINUOUS
10
76.2556
20
-73.7049
11
76.2811
21
-73.6912
0
LINE
8
BLACK
6
CONTINUOUS
10
76.2811
20
-73.6912
11
76.3087
21
-73.6828
0
LINE
8
BLACK
6
CONTINUOUS
10
76.3087
20
-73.6828
11
76.3375
21
-73.68
0
LINE
8
BLACK
6
CONTINUOUS
10
76.3375
20
-73.68
11
76.6325
21
-73.68
0
LINE
8
BLACK
6
CONTINUOUS
10
76.6325
20
-73.68
11
76.6613
21
-73.6828
0
LINE
8
BLACK
6
CONTINUOUS
10
75.6913
20
-73.6828
11
75.719
21
-73.6912
0
LINE
8
BLACK
6
CONTINUOUS
10
75.719
20
-73.6912
11
75.7445
21
-73.7049
0
LINE
8
BLACK
6
CONTINUOUS
10
75.7445
20
-73.7049
11
75.7668
21
-73.7232
0
LINE
8
BLACK
6
CONTINUOUS
10
75.7668
20
-73.7232
11
75.7852
21
-73.7456
0
LINE
8
BLACK
6
CONTINUOUS
10
75.7852
20
-73.7456
11
75.7988
21
-73.7711
0
LINE
8
BLACK
6
CONTINUOUS
10
75.7988
20
-73.7711
11
75.8072
21
-73.7987
0
LINE
8
BLACK
6
CONTINUOUS
10
75.8072
20
-73.7987
11
75.81
21
-73.8275
0
LINE
8
BLACK
6
CONTINUOUS
10
75.81
20
-73.8275
11
75.81
21
-74.1725
0
LINE
8
BLACK
6
CONTINUOUS
10
75.81
20
-74.1725
11
75.8072
21
-74.2013
0
LINE
8
BLACK
6
CONTINUOUS
10
75.8072
20
-74.2013
11
75.7988
21
-74.2289
0
LINE
8
BLACK
6
CONTINUOUS
10
75.7988
20
-74.2289
11
75.7852
21
-74.2544
0
LINE
8
BLACK
6
CONTINUOUS
10
75.7852
20
-74.2544
11
75.7668
21
-74.2768
0
LINE
8
BLACK
6
CONTINUOUS
10
75.7668
20
-74.2768
11
75.7445
21
-74.2951
0
LINE
8
BLACK
6
CONTINUOUS
10
75.7445
20
-74.2951
11
75.719
21
-74.3088
0
LINE
8
BLACK
6
CONTINUOUS
10
75.719
20
-74.3088
11
75.6913
21
-74.3172
0
LINE
8
BLACK
6
CONTINUOUS
10
75.6913
20
-74.3172
11
75.6625
21
-74.32
0
LINE
8
BLACK
6
CONTINUOUS
10
75.6625
20
-74.32
11
75.3675
21
-74.32
0
LINE
8
BLACK
6
CONTINUOUS
10
75.3675
20
-74.32
11
75.3387
21
-74.3172
0
LINE
8
BLACK
6
CONTINUOUS
10
75.3387
20
-74.3172
11
75.3111
21
-74.3088
0
LINE
8
BLACK
6
CONTINUOUS
10
75.3111
20
-74.3088
11
75.2856
21
-74.2951
0
LINE
8
BLACK
6
CONTINUOUS
10
75.2856
20
-74.2951
11
75.2632
21
-74.2768
0
LINE
8
BLACK
6
CONTINUOUS
10
75.2632
20
-74.2768
11
75.2449
21
-74.2544
0
LINE
8
BLACK
6
CONTINUOUS
10
75.2449
20
-74.2544
11
75.2312
21
-74.2289
0
LINE
8
BLACK
6
CONTINUOUS
10
75.2312
20
-74.2289
11
75.2229
21
-74.2013
0
LINE
8
BLACK
6
CONTINUOUS
10
75.2229
20
-74.2013
11
75.22
21
-74.1725
0
LINE
8
BLACK
6
CONTINUOUS
10
75.22
20
-74.1725
11
75.22
21
-73.8275
0
LINE
8
BLACK
6
CONTINUOUS
10
75.22
20
-73.8275
11
75.2229
21
-73.7987
0
LINE
8
BLACK
6
CONTINUOUS
10
75.2229
20
-73.7987
11
75.2312
21
-73.7711
0
LINE
8
BLACK
6
CONTINUOUS
10
75.2312
20
-73.7711
11
75.2449
21
-73.7456
0
LINE
8
BLACK
6
CONTINUOUS
10
75.2449
20
-73.7456
11
75.2632
21
-73.7232
0
LINE
8
BLACK
6
CONTINUOUS
10
75.2632
20
-73.7232
11
75.2856
21
-73.7049
0
LINE
8
BLACK
6
CONTINUOUS
10
75.2856
20
-73.7049
11
75.3111
21
-73.6912
0
LINE
8
BLACK
6
CONTINUOUS
10
75.3111
20
-73.6912
11
75.3387
21
-73.6828
0
LINE
8
BLACK
6
CONTINUOUS
10
75.3387
20
-73.6828
11
75.3675
21
-73.68
0
LINE
8
BLACK
6
CONTINUOUS
10
75.3675
20
-73.68
11
75.6625
21
-73.68
0
LINE
8
BLACK
6
CONTINUOUS
10
75.6625
20
-73.68
11
75.6913
21
-73.6828
0
LINE
8
BLACK
6
CONTINUOUS
10
61.6613
20
-73.6828
11
61.6889
21
-73.6912
0
LINE
8
BLACK
6
CONTINUOUS
10
61.6889
20
-73.6912
11
61.7144
21
-73.7049
0
LINE
8
BLACK
6
CONTINUOUS
10
61.7144
20
-73.7049
11
61.7368
21
-73.7232
0
LINE
8
BLACK
6
CONTINUOUS
10
61.7368
20
-73.7232
11
61.7551
21
-73.7456
0
LINE
8
BLACK
6
CONTINUOUS
10
61.7551
20
-73.7456
11
61.7688
21
-73.7711
0
LINE
8
BLACK
6
CONTINUOUS
10
61.7688
20
-73.7711
11
61.7772
21
-73.7987
0
LINE
8
BLACK
6
CONTINUOUS
10
61.7772
20
-73.7987
11
61.78
21
-73.8275
0
LINE
8
BLACK
6
CONTINUOUS
10
61.78
20
-73.8275
11
61.78
21
-74.1725
0
LINE
8
BLACK
6
CONTINUOUS
10
61.78
20
-74.1725
11
61.7772
21
-74.2013
0
LINE
8
BLACK
6
CONTINUOUS
10
61.7772
20
-74.2013
11
61.7688
21
-74.2289
0
LINE
8
BLACK
6
CONTINUOUS
10
61.7688
20
-74.2289
11
61.7551
21
-74.2544
0
LINE
8
BLACK
6
CONTINUOUS
10
61.7551
20
-74.2544
11
61.7368
21
-74.2768
0
LINE
8
BLACK
6
CONTINUOUS
10
61.7368
20
-74.2768
11
61.7144
21
-74.2951
0
LINE
8
BLACK
6
CONTINUOUS
10
61.7144
20
-74.2951
11
61.6889
21
-74.3088
0
LINE
8
BLACK
6
CONTINUOUS
10
61.6889
20
-74.3088
11
61.6613
21
-74.3172
0
LINE
8
BLACK
6
CONTINUOUS
10
61.6613
20
-74.3172
11
61.6325
21
-74.32
0
LINE
8
BLACK
6
CONTINUOUS
10
61.6325
20
-74.32
11
61.3375
21
-74.32
0
LINE
8
BLACK
6
CONTINUOUS
10
61.3375
20
-74.32
11
61.3087
21
-74.3172
0
LINE
8
BLACK
6
CONTINUOUS
10
61.3087
20
-74.3172
11
61.2811
21
-74.3088
0
LINE
8
BLACK
6
CONTINUOUS
10
61.2811
20
-74.3088
11
61.2556
21
-74.2951
0
LINE
8
BLACK
6
CONTINUOUS
10
61.2556
20
-74.2951
11
61.2332
21
-74.2768
0
LINE
8
BLACK
6
CONTINUOUS
10
61.2332
20
-74.2768
11
61.2149
21
-74.2544
0
LINE
8
BLACK
6
CONTINUOUS
10
61.2149
20
-74.2544
11
61.2012
21
-74.2289
0
LINE
8
BLACK
6
CONTINUOUS
10
61.2012
20
-74.2289
11
61.1928
21
-74.2013
0
LINE
8
BLACK
6
CONTINUOUS
10
61.1928
20
-74.2013
11
61.19
21
-74.1725
0
LINE
8
BLACK
6
CONTINUOUS
10
61.19
20
-74.1725
11
61.19
21
-73.8275
0
LINE
8
BLACK
6
CONTINUOUS
10
61.19
20
-73.8275
11
61.1928
21
-73.7987
0
LINE
8
BLACK
6
CONTINUOUS
10
61.1928
20
-73.7987
11
61.2012
21
-73.7711
0
LINE
8
BLACK
6
CONTINUOUS
10
61.2012
20
-73.7711
11
61.2149
21
-73.7456
0
LINE
8
BLACK
6
CONTINUOUS
10
61.2149
20
-73.7456
11
61.2332
21
-73.7232
0
LINE
8
BLACK
6
CONTINUOUS
10
61.2332
20
-73.7232
11
61.2556
21
-73.7049
0
LINE
8
BLACK
6
CONTINUOUS
10
61.2556
20
-73.7049
11
61.2811
21
-73.6912
0
LINE
8
BLACK
6
CONTINUOUS
10
61.2811
20
-73.6912
11
61.3087
21
-73.6828
0
LINE
8
BLACK
6
CONTINUOUS
10
61.3087
20
-73.6828
11
61.3375
21
-73.68
0
LINE
8
BLACK
6
CONTINUOUS
10
61.3375
20
-73.68
11
61.6325
21
-73.68
0
LINE
8
BLACK
6
CONTINUOUS
10
61.6325
20
-73.68
11
61.6613
21
-73.6828
0
LINE
8
BLACK
6
CONTINUOUS
10
60.6913
20
-73.6828
11
60.7189
21
-73.6912
0
LINE
8
BLACK
6
CONTINUOUS
10
60.7189
20
-73.6912
11
60.7444
21
-73.7049
0
LINE
8
BLACK
6
CONTINUOUS
10
60.7444
20
-73.7049
11
60.7668
21
-73.7232
0
LINE
8
BLACK
6
CONTINUOUS
10
60.7668
20
-73.7232
11
60.7851
21
-73.7456
0
LINE
8
BLACK
6
CONTINUOUS
10
60.7851
20
-73.7456
11
60.7988
21
-73.7711
0
LINE
8
BLACK
6
CONTINUOUS
10
60.7988
20
-73.7711
11
60.8072
21
-73.7987
0
LINE
8
BLACK
6
CONTINUOUS
10
60.8072
20
-73.7987
11
60.81
21
-73.8275
0
LINE
8
BLACK
6
CONTINUOUS
10
60.81
20
-73.8275
11
60.81
21
-74.1725
0
LINE
8
BLACK
6
CONTINUOUS
10
60.81
20
-74.1725
11
60.8072
21
-74.2013
0
LINE
8
BLACK
6
CONTINUOUS
10
60.8072
20
-74.2013
11
60.7988
21
-74.2289
0
LINE
8
BLACK
6
CONTINUOUS
10
60.7988
20
-74.2289
11
60.7851
21
-74.2544
0
LINE
8
BLACK
6
CONTINUOUS
10
60.7851
20
-74.2544
11
60.7668
21
-74.2768
0
LINE
8
BLACK
6
CONTINUOUS
10
60.7668
20
-74.2768
11
60.7444
21
-74.2951
0
LINE
8
BLACK
6
CONTINUOUS
10
60.7444
20
-74.2951
11
60.7189
21
-74.3088
0
LINE
8
BLACK
6
CONTINUOUS
10
60.7189
20
-74.3088
11
60.6913
21
-74.3172
0
LINE
8
BLACK
6
CONTINUOUS
10
60.6913
20
-74.3172
11
60.6625
21
-74.32
0
LINE
8
BLACK
6
CONTINUOUS
10
60.6625
20
-74.32
11
60.3675
21
-74.32
0
LINE
8
BLACK
6
CONTINUOUS
10
60.3675
20
-74.32
11
60.3387
21
-74.3172
0
LINE
8
BLACK
6
CONTINUOUS
10
60.3387
20
-74.3172
11
60.3111
21
-74.3088
0
LINE
8
BLACK
6
CONTINUOUS
10
60.3111
20
-74.3088
11
60.2856
21
-74.2951
0
LINE
8
BLACK
6
CONTINUOUS
10
60.2856
20
-74.2951
11
60.2632
21
-74.2768
0
LINE
8
BLACK
6
CONTINUOUS
10
60.2632
20
-74.2768
11
60.2449
21
-74.2544
0
LINE
8
BLACK
6
CONTINUOUS
10
60.2449
20
-74.2544
11
60.2312
21
-74.2289
0
LINE
8
BLACK
6
CONTINUOUS
10
60.2312
20
-74.2289
11
60.2228
21
-74.2013
0
LINE
8
BLACK
6
CONTINUOUS
10
60.2228
20
-74.2013
11
60.22
21
-74.1725
0
LINE
8
BLACK
6
CONTINUOUS
10
60.22
20
-74.1725
11
60.22
21
-73.8275
0
LINE
8
BLACK
6
CONTINUOUS
10
60.22
20
-73.8275
11
60.2228
21
-73.7987
0
LINE
8
BLACK
6
CONTINUOUS
10
60.2228
20
-73.7987
11
60.2312
21
-73.7711
0
LINE
8
BLACK
6
CONTINUOUS
10
60.2312
20
-73.7711
11
60.2449
21
-73.7456
0
LINE
8
BLACK
6
CONTINUOUS
10
60.2449
20
-73.7456
11
60.2632
21
-73.7232
0
LINE
8
BLACK
6
CONTINUOUS
10
60.2632
20
-73.7232
11
60.2856
21
-73.7049
0
LINE
8
BLACK
6
CONTINUOUS
10
60.2856
20
-73.7049
11
60.3111
21
-73.6912
0
LINE
8
BLACK
6
CONTINUOUS
10
60.3111
20
-73.6912
11
60.3387
21
-73.6828
0
LINE
8
BLACK
6
CONTINUOUS
10
60.3387
20
-73.6828
11
60.3675
21
-73.68
0
LINE
8
BLACK
6
CONTINUOUS
10
60.3675
20
-73.68
11
60.6625
21
-73.68
0
LINE
8
BLACK
6
CONTINUOUS
10
60.6625
20
-73.68
11
60.6913
21
-73.6828
0
LINE
8
BLACK
6
CONTINUOUS
10
53.1682
20
-73.372
11
53.1958
21
-73.3804
0
LINE
8
BLACK
6
CONTINUOUS
10
53.1958
20
-73.3804
11
53.2213
21
-73.394
0
LINE
8
BLACK
6
CONTINUOUS
10
53.2213
20
-73.394
11
53.2437
21
-73.4124
0
LINE
8
BLACK
6
CONTINUOUS
10
53.2437
20
-73.4124
11
53.4876
21
-73.6563
0
LINE
8
BLACK
6
CONTINUOUS
10
53.4876
20
-73.6563
11
53.506
21
-73.6787
0
LINE
8
BLACK
6
CONTINUOUS
10
53.506
20
-73.6787
11
53.5196
21
-73.7042
0
LINE
8
BLACK
6
CONTINUOUS
10
53.5196
20
-73.7042
11
53.528
21
-73.7318
0
LINE
8
BLACK
6
CONTINUOUS
10
53.528
20
-73.7318
11
53.5308
21
-73.7606
0
LINE
8
BLACK
6
CONTINUOUS
10
53.5308
20
-73.7606
11
53.528
21
-73.7894
0
LINE
8
BLACK
6
CONTINUOUS
10
53.528
20
-73.7894
11
53.5196
21
-73.8171
0
LINE
8
BLACK
6
CONTINUOUS
10
53.5196
20
-73.8171
11
53.506
21
-73.8426
0
LINE
8
BLACK
6
CONTINUOUS
10
53.506
20
-73.8426
11
53.4876
21
-73.8649
0
LINE
8
BLACK
6
CONTINUOUS
10
53.4876
20
-73.8649
11
53.279
21
-74.0735
0
LINE
8
BLACK
6
CONTINUOUS
10
53.279
20
-74.0735
11
53.2567
21
-74.0919
0
LINE
8
BLACK
6
CONTINUOUS
10
53.2567
20
-74.0919
11
53.2312
21
-74.1055
0
LINE
8
BLACK
6
CONTINUOUS
10
53.2312
20
-74.1055
11
53.2035
21
-74.1139
0
LINE
8
BLACK
6
CONTINUOUS
10
53.2035
20
-74.1139
11
53.1747
21
-74.1167
0
LINE
8
BLACK
6
CONTINUOUS
10
53.1747
20
-74.1167
11
53.146
21
-74.1139
0
LINE
8
BLACK
6
CONTINUOUS
10
53.146
20
-74.1139
11
53.1183
21
-74.1055
0
LINE
8
BLACK
6
CONTINUOUS
10
53.1183
20
-74.1055
11
53.0928
21
-74.0919
0
LINE
8
BLACK
6
CONTINUOUS
10
53.0928
20
-74.0919
11
53.0704
21
-74.0735
0
LINE
8
BLACK
6
CONTINUOUS
10
53.0704
20
-74.0735
11
52.8265
21
-73.8296
0
LINE
8
BLACK
6
CONTINUOUS
10
52.8265
20
-73.8296
11
52.8081
21
-73.8072
0
LINE
8
BLACK
6
CONTINUOUS
10
52.8081
20
-73.8072
11
52.7945
21
-73.7817
0
LINE
8
BLACK
6
CONTINUOUS
10
52.7945
20
-73.7817
11
52.7861
21
-73.754
0
LINE
8
BLACK
6
CONTINUOUS
10
52.7861
20
-73.754
11
52.7833
21
-73.7253
0
LINE
8
BLACK
6
CONTINUOUS
10
52.7833
20
-73.7253
11
52.7861
21
-73.6965
0
LINE
8
BLACK
6
CONTINUOUS
10
52.7861
20
-73.6965
11
52.7945
21
-73.6688
0
LINE
8
BLACK
6
CONTINUOUS
10
52.7945
20
-73.6688
11
52.8081
21
-73.6433
0
LINE
8
BLACK
6
CONTINUOUS
10
52.8081
20
-73.6433
11
52.8265
21
-73.621
0
LINE
8
BLACK
6
CONTINUOUS
10
52.8265
20
-73.621
11
53.0351
21
-73.4124
0
LINE
8
BLACK
6
CONTINUOUS
10
53.0351
20
-73.4124
11
53.0574
21
-73.394
0
LINE
8
BLACK
6
CONTINUOUS
10
53.0574
20
-73.394
11
53.0829
21
-73.3804
0
LINE
8
BLACK
6
CONTINUOUS
10
53.0829
20
-73.3804
11
53.1106
21
-73.372
0
LINE
8
BLACK
6
CONTINUOUS
10
53.1106
20
-73.372
11
53.1394
21
-73.3692
0
LINE
8
BLACK
6
CONTINUOUS
10
53.1394
20
-73.3692
11
53.1682
21
-73.372
0
LINE
8
BLACK
6
CONTINUOUS
10
68.1682
20
-73.372
11
68.1958
21
-73.3804
0
LINE
8
BLACK
6
CONTINUOUS
10
68.1958
20
-73.3804
11
68.2213
21
-73.394
0
LINE
8
BLACK
6
CONTINUOUS
10
68.2213
20
-73.394
11
68.2437
21
-73.4124
0
LINE
8
BLACK
6
CONTINUOUS
10
68.2437
20
-73.4124
11
68.4876
21
-73.6563
0
LINE
8
BLACK
6
CONTINUOUS
10
68.4876
20
-73.6563
11
68.506
21
-73.6787
0
LINE
8
BLACK
6
CONTINUOUS
10
68.506
20
-73.6787
11
68.5196
21
-73.7042
0
LINE
8
BLACK
6
CONTINUOUS
10
68.5196
20
-73.7042
11
68.528
21
-73.7318
0
LINE
8
BLACK
6
CONTINUOUS
10
68.528
20
-73.7318
11
68.5308
21
-73.7606
0
LINE
8
BLACK
6
CONTINUOUS
10
68.5308
20
-73.7606
11
68.528
21
-73.7894
0
LINE
8
BLACK
6
CONTINUOUS
10
68.528
20
-73.7894
11
68.5196
21
-73.8171
0
LINE
8
BLACK
6
CONTINUOUS
10
68.5196
20
-73.8171
11
68.506
21
-73.8426
0
LINE
8
BLACK
6
CONTINUOUS
10
68.506
20
-73.8426
11
68.4876
21
-73.8649
0
LINE
8
BLACK
6
CONTINUOUS
10
68.4876
20
-73.8649
11
68.279
21
-74.0735
0
LINE
8
BLACK
6
CONTINUOUS
10
68.279
20
-74.0735
11
68.2567
21
-74.0919
0
LINE
8
BLACK
6
CONTINUOUS
10
68.2567
20
-74.0919
11
68.2312
21
-74.1055
0
LINE
8
BLACK
6
CONTINUOUS
10
68.2312
20
-74.1055
11
68.2035
21
-74.1139
0
LINE
8
BLACK
6
CONTINUOUS
10
68.2035
20
-74.1139
11
68.1747
21
-74.1167
0
LINE
8
BLACK
6
CONTINUOUS
10
68.1747
20
-74.1167
11
68.146
21
-74.1139
0
LINE
8
BLACK
6
CONTINUOUS
10
68.146
20
-74.1139
11
68.1183
21
-74.1055
0
LINE
8
BLACK
6
CONTINUOUS
10
68.1183
20
-74.1055
11
68.0928
21
-74.0919
0
LINE
8
BLACK
6
CONTINUOUS
10
68.0928
20
-74.0919
11
68.0705
21
-74.0735
0
LINE
8
BLACK
6
CONTINUOUS
10
68.0705
20
-74.0735
11
67.8265
21
-73.8296
0
LINE
8
BLACK
6
CONTINUOUS
10
67.8265
20
-73.8296
11
67.8082
21
-73.8072
0
LINE
8
BLACK
6
CONTINUOUS
10
67.8082
20
-73.8072
11
67.7945
21
-73.7817
0
LINE
8
BLACK
6
CONTINUOUS
10
67.7945
20
-73.7817
11
67.7861
21
-73.754
0
LINE
8
BLACK
6
CONTINUOUS
10
67.7861
20
-73.754
11
67.7833
21
-73.7253
0
LINE
8
BLACK
6
CONTINUOUS
10
67.7833
20
-73.7253
11
67.7861
21
-73.6965
0
LINE
8
BLACK
6
CONTINUOUS
10
67.7861
20
-73.6965
11
67.7945
21
-73.6688
0
LINE
8
BLACK
6
CONTINUOUS
10
67.7945
20
-73.6688
11
67.8082
21
-73.6433
0
LINE
8
BLACK
6
CONTINUOUS
10
67.8082
20
-73.6433
11
67.8265
21
-73.621
0
LINE
8
BLACK
6
CONTINUOUS
10
67.8265
20
-73.621
11
68.0351
21
-73.4124
0
LINE
8
BLACK
6
CONTINUOUS
10
68.0351
20
-73.4124
11
68.0574
21
-73.394
0
LINE
8
BLACK
6
CONTINUOUS
10
68.0574
20
-73.394
11
68.0829
21
-73.3804
0
LINE
8
BLACK
6
CONTINUOUS
10
68.0829
20
-73.3804
11
68.1106
21
-73.372
0
LINE
8
BLACK
6
CONTINUOUS
10
68.1106
20
-73.372
11
68.1394
21
-73.3692
0
LINE
8
BLACK
6
CONTINUOUS
10
68.1394
20
-73.3692
11
68.1682
21
-73.372
0
LINE
8
BLACK
6
CONTINUOUS
10
68.8541
20
-72.6861
11
68.8817
21
-72.6945
0
LINE
8
BLACK
6
CONTINUOUS
10
68.8817
20
-72.6945
11
68.9072
21
-72.7081
0
LINE
8
BLACK
6
CONTINUOUS
10
68.9072
20
-72.7081
11
68.9296
21
-72.7265
0
LINE
8
BLACK
6
CONTINUOUS
10
68.9296
20
-72.7265
11
69.1735
21
-72.9704
0
LINE
8
BLACK
6
CONTINUOUS
10
69.1735
20
-72.9704
11
69.1919
21
-72.9928
0
LINE
8
BLACK
6
CONTINUOUS
10
69.1919
20
-72.9928
11
69.2055
21
-73.0183
0
LINE
8
BLACK
6
CONTINUOUS
10
69.2055
20
-73.0183
11
69.2139
21
-73.046
0
LINE
8
BLACK
6
CONTINUOUS
10
69.2139
20
-73.046
11
69.2167
21
-73.0747
0
LINE
8
BLACK
6
CONTINUOUS
10
69.2167
20
-73.0747
11
69.2139
21
-73.1035
0
LINE
8
BLACK
6
CONTINUOUS
10
69.2139
20
-73.1035
11
69.2055
21
-73.1312
0
LINE
8
BLACK
6
CONTINUOUS
10
69.2055
20
-73.1312
11
69.1919
21
-73.1567
0
LINE
8
BLACK
6
CONTINUOUS
10
69.1919
20
-73.1567
11
69.1735
21
-73.179
0
LINE
8
BLACK
6
CONTINUOUS
10
69.1735
20
-73.179
11
68.9649
21
-73.3876
0
LINE
8
BLACK
6
CONTINUOUS
10
68.9649
20
-73.3876
11
68.9426
21
-73.406
0
LINE
8
BLACK
6
CONTINUOUS
10
68.9426
20
-73.406
11
68.9171
21
-73.4196
0
LINE
8
BLACK
6
CONTINUOUS
10
68.9171
20
-73.4196
11
68.8894
21
-73.428
0
LINE
8
BLACK
6
CONTINUOUS
10
68.8894
20
-73.428
11
68.8606
21
-73.4308
0
LINE
8
BLACK
6
CONTINUOUS
10
68.8606
20
-73.4308
11
68.8319
21
-73.428
0
LINE
8
BLACK
6
CONTINUOUS
10
68.8319
20
-73.428
11
68.8042
21
-73.4196
0
LINE
8
BLACK
6
CONTINUOUS
10
68.8042
20
-73.4196
11
68.7787
21
-73.406
0
LINE
8
BLACK
6
CONTINUOUS
10
68.7787
20
-73.406
11
68.7563
21
-73.3876
0
LINE
8
BLACK
6
CONTINUOUS
10
68.7563
20
-73.3876
11
68.5124
21
-73.1437
0
LINE
8
BLACK
6
CONTINUOUS
10
68.5124
20
-73.1437
11
68.494
21
-73.1213
0
LINE
8
BLACK
6
CONTINUOUS
10
68.494
20
-73.1213
11
68.4804
21
-73.0958
0
LINE
8
BLACK
6
CONTINUOUS
10
68.4804
20
-73.0958
11
68.472
21
-73.0682
0
LINE
8
BLACK
6
CONTINUOUS
10
68.472
20
-73.0682
11
68.4692
21
-73.0394
0
LINE
8
BLACK
6
CONTINUOUS
10
68.4692
20
-73.0394
11
68.472
21
-73.0106
0
LINE
8
BLACK
6
CONTINUOUS
10
68.472
20
-73.0106
11
68.4804
21
-72.9829
0
LINE
8
BLACK
6
CONTINUOUS
10
68.4804
20
-72.9829
11
68.494
21
-72.9574
0
LINE
8
BLACK
6
CONTINUOUS
10
68.494
20
-72.9574
11
68.5124
21
-72.9351
0
LINE
8
BLACK
6
CONTINUOUS
10
68.5124
20
-72.9351
11
68.721
21
-72.7265
0
LINE
8
BLACK
6
CONTINUOUS
10
68.721
20
-72.7265
11
68.7433
21
-72.7081
0
LINE
8
BLACK
6
CONTINUOUS
10
68.7433
20
-72.7081
11
68.7688
21
-72.6945
0
LINE
8
BLACK
6
CONTINUOUS
10
68.7688
20
-72.6945
11
68.7965
21
-72.6861
0
LINE
8
BLACK
6
CONTINUOUS
10
68.7965
20
-72.6861
11
68.8253
21
-72.6833
0
LINE
8
BLACK
6
CONTINUOUS
10
68.8253
20
-72.6833
11
68.8541
21
-72.6861
0
LINE
8
BLACK
6
CONTINUOUS
10
53.854
20
-72.6861
11
53.8817
21
-72.6945
0
LINE
8
BLACK
6
CONTINUOUS
10
53.8817
20
-72.6945
11
53.9072
21
-72.7081
0
LINE
8
BLACK
6
CONTINUOUS
10
53.9072
20
-72.7081
11
53.9296
21
-72.7265
0
LINE
8
BLACK
6
CONTINUOUS
10
53.9296
20
-72.7265
11
54.1735
21
-72.9704
0
LINE
8
BLACK
6
CONTINUOUS
10
54.1735
20
-72.9704
11
54.1919
21
-72.9928
0
LINE
8
BLACK
6
CONTINUOUS
10
54.1919
20
-72.9928
11
54.2055
21
-73.0183
0
LINE
8
BLACK
6
CONTINUOUS
10
54.2055
20
-73.0183
11
54.2139
21
-73.046
0
LINE
8
BLACK
6
CONTINUOUS
10
54.2139
20
-73.046
11
54.2167
21
-73.0747
0
LINE
8
BLACK
6
CONTINUOUS
10
54.2167
20
-73.0747
11
54.2139
21
-73.1035
0
LINE
8
BLACK
6
CONTINUOUS
10
54.2139
20
-73.1035
11
54.2055
21
-73.1312
0
LINE
8
BLACK
6
CONTINUOUS
10
54.2055
20
-73.1312
11
54.1919
21
-73.1567
0
LINE
8
BLACK
6
CONTINUOUS
10
54.1919
20
-73.1567
11
54.1735
21
-73.179
0
LINE
8
BLACK
6
CONTINUOUS
10
54.1735
20
-73.179
11
53.9649
21
-73.3876
0
LINE
8
BLACK
6
CONTINUOUS
10
53.9649
20
-73.3876
11
53.9426
21
-73.406
0
LINE
8
BLACK
6
CONTINUOUS
10
53.9426
20
-73.406
11
53.9171
21
-73.4196
0
LINE
8
BLACK
6
CONTINUOUS
10
53.9171
20
-73.4196
11
53.8894
21
-73.428
0
LINE
8
BLACK
6
CONTINUOUS
10
53.8894
20
-73.428
11
53.8606
21
-73.4308
0
LINE
8
BLACK
6
CONTINUOUS
10
53.8606
20
-73.4308
11
53.8318
21
-73.428
0
LINE
8
BLACK
6
CONTINUOUS
10
53.8318
20
-73.428
11
53.8042
21
-73.4196
0
LINE
8
BLACK
6
CONTINUOUS
10
53.8042
20
-73.4196
11
53.7787
21
-73.406
0
LINE
8
BLACK
6
CONTINUOUS
10
53.7787
20
-73.406
11
53.7563
21
-73.3876
0
LINE
8
BLACK
6
CONTINUOUS
10
53.7563
20
-73.3876
11
53.5124
21
-73.1437
0
LINE
8
BLACK
6
CONTINUOUS
10
53.5124
20
-73.1437
11
53.494
21
-73.1213
0
LINE
8
BLACK
6
CONTINUOUS
10
53.494
20
-73.1213
11
53.4804
21
-73.0958
0
LINE
8
BLACK
6
CONTINUOUS
10
53.4804
20
-73.0958
11
53.472
21
-73.0682
0
LINE
8
BLACK
6
CONTINUOUS
10
53.472
20
-73.0682
11
53.4692
21
-73.0394
0
LINE
8
BLACK
6
CONTINUOUS
10
53.4692
20
-73.0394
11
53.472
21
-73.0106
0
LINE
8
BLACK
6
CONTINUOUS
10
53.472
20
-73.0106
11
53.4804
21
-72.9829
0
LINE
8
BLACK
6
CONTINUOUS
10
53.4804
20
-72.9829
11
53.494
21
-72.9574
0
LINE
8
BLACK
6
CONTINUOUS
10
53.494
20
-72.9574
11
53.5124
21
-72.9351
0
LINE
8
BLACK
6
CONTINUOUS
10
53.5124
20
-72.9351
11
53.721
21
-72.7265
0
LINE
8
BLACK
6
CONTINUOUS
10
53.721
20
-72.7265
11
53.7433
21
-72.7081
0
LINE
8
BLACK
6
CONTINUOUS
10
53.7433
20
-72.7081
11
53.7688
21
-72.6945
0
LINE
8
BLACK
6
CONTINUOUS
10
53.7688
20
-72.6945
11
53.7965
21
-72.6861
0
LINE
8
BLACK
6
CONTINUOUS
10
53.7965
20
-72.6861
11
53.8253
21
-72.6833
0
LINE
8
BLACK
6
CONTINUOUS
10
53.8253
20
-72.6833
11
53.854
21
-72.6861
0
LINE
8
BLACK
6
CONTINUOUS
10
54.9739
20
-66.5292
11
55.015
21
-66.5417
0
LINE
8
BLACK
6
CONTINUOUS
10
55.015
20
-66.5417
11
55.0528
21
-66.5619
0
LINE
8
BLACK
6
CONTINUOUS
10
55.0528
20
-66.5619
11
55.0859
21
-66.5891
0
LINE
8
BLACK
6
CONTINUOUS
10
55.0859
20
-66.5891
11
55.1131
21
-66.6222
0
LINE
8
BLACK
6
CONTINUOUS
10
55.1131
20
-66.6222
11
55.1334
21
-66.66
0
LINE
8
BLACK
6
CONTINUOUS
10
55.1334
20
-66.66
11
55.1458
21
-66.7011
0
LINE
8
BLACK
6
CONTINUOUS
10
55.1458
20
-66.7011
11
55.15
21
-66.7438
0
LINE
8
BLACK
6
CONTINUOUS
10
55.15
20
-66.7438
11
55.15
21
-67.2563
0
LINE
8
BLACK
6
CONTINUOUS
10
55.15
20
-67.2563
11
55.1458
21
-67.2989
0
LINE
8
BLACK
6
CONTINUOUS
10
55.1458
20
-67.2989
11
55.1334
21
-67.34
0
LINE
8
BLACK
6
CONTINUOUS
10
55.1334
20
-67.34
11
55.1131
21
-67.3778
0
LINE
8
BLACK
6
CONTINUOUS
10
55.1131
20
-67.3778
11
55.0859
21
-67.4109
0
LINE
8
BLACK
6
CONTINUOUS
10
55.0859
20
-67.4109
11
55.0528
21
-67.4381
0
LINE
8
BLACK
6
CONTINUOUS
10
55.0528
20
-67.4381
11
55.015
21
-67.4583
0
LINE
8
BLACK
6
CONTINUOUS
10
55.015
20
-67.4583
11
54.9739
21
-67.4708
0
LINE
8
BLACK
6
CONTINUOUS
10
54.9739
20
-67.4708
11
54.9313
21
-67.475
0
LINE
8
BLACK
6
CONTINUOUS
10
54.9313
20
-67.475
11
54.4938
21
-67.475
0
LINE
8
BLACK
6
CONTINUOUS
10
54.4938
20
-67.475
11
54.4511
21
-67.4708
0
LINE
8
BLACK
6
CONTINUOUS
10
54.4511
20
-67.4708
11
54.41
21
-67.4583
0
LINE
8
BLACK
6
CONTINUOUS
10
54.41
20
-67.4583
11
54.3722
21
-67.4381
0
LINE
8
BLACK
6
CONTINUOUS
10
54.3722
20
-67.4381
11
54.3391
21
-67.4109
0
LINE
8
BLACK
6
CONTINUOUS
10
54.3391
20
-67.4109
11
54.3119
21
-67.3778
0
LINE
8
BLACK
6
CONTINUOUS
10
54.3119
20
-67.3778
11
54.2917
21
-67.34
0
LINE
8
BLACK
6
CONTINUOUS
10
54.2917
20
-67.34
11
54.2792
21
-67.2989
0
LINE
8
BLACK
6
CONTINUOUS
10
54.2792
20
-67.2989
11
54.275
21
-67.2563
0
LINE
8
BLACK
6
CONTINUOUS
10
54.275
20
-67.2563
11
54.275
21
-66.7438
0
LINE
8
BLACK
6
CONTINUOUS
10
54.275
20
-66.7438
11
54.2792
21
-66.7011
0
LINE
8
BLACK
6
CONTINUOUS
10
54.2792
20
-66.7011
11
54.2917
21
-66.66
0
LINE
8
BLACK
6
CONTINUOUS
10
54.2917
20
-66.66
11
54.3119
21
-66.6222
0
LINE
8
BLACK
6
CONTINUOUS
10
54.3119
20
-66.6222
11
54.3391
21
-66.5891
0
LINE
8
BLACK
6
CONTINUOUS
10
54.3391
20
-66.5891
11
54.3722
21
-66.5619
0
LINE
8
BLACK
6
CONTINUOUS
10
54.3722
20
-66.5619
11
54.41
21
-66.5417
0
LINE
8
BLACK
6
CONTINUOUS
10
54.41
20
-66.5417
11
54.4511
21
-66.5292
0
LINE
8
BLACK
6
CONTINUOUS
10
54.4511
20
-66.5292
11
54.4938
21
-66.525
0
LINE
8
BLACK
6
CONTINUOUS
10
54.4938
20
-66.525
11
54.9313
21
-66.525
0
LINE
8
BLACK
6
CONTINUOUS
10
54.9313
20
-66.525
11
54.9739
21
-66.5292
0
LINE
8
BLACK
6
CONTINUOUS
10
71.5489
20
-66.5292
11
71.59
21
-66.5417
0
LINE
8
BLACK
6
CONTINUOUS
10
71.59
20
-66.5417
11
71.6278
21
-66.5619
0
LINE
8
BLACK
6
CONTINUOUS
10
71.6278
20
-66.5619
11
71.6609
21
-66.5891
0
LINE
8
BLACK
6
CONTINUOUS
10
71.6609
20
-66.5891
11
71.6882
21
-66.6222
0
LINE
8
BLACK
6
CONTINUOUS
10
71.6882
20
-66.6222
11
71.7084
21
-66.66
0
LINE
8
BLACK
6
CONTINUOUS
10
71.7084
20
-66.66
11
71.7208
21
-66.7011
0
LINE
8
BLACK
6
CONTINUOUS
10
71.7208
20
-66.7011
11
71.725
21
-66.7438
0
LINE
8
BLACK
6
CONTINUOUS
10
71.725
20
-66.7438
11
71.725
21
-67.2563
0
LINE
8
BLACK
6
CONTINUOUS
10
71.725
20
-67.2563
11
71.7208
21
-67.2989
0
LINE
8
BLACK
6
CONTINUOUS
10
71.7208
20
-67.2989
11
71.7084
21
-67.34
0
LINE
8
BLACK
6
CONTINUOUS
10
71.7084
20
-67.34
11
71.6882
21
-67.3778
0
LINE
8
BLACK
6
CONTINUOUS
10
71.6882
20
-67.3778
11
71.6609
21
-67.4109
0
LINE
8
BLACK
6
CONTINUOUS
10
71.6609
20
-67.4109
11
71.6278
21
-67.4381
0
LINE
8
BLACK
6
CONTINUOUS
10
71.6278
20
-67.4381
11
71.59
21
-67.4583
0
LINE
8
BLACK
6
CONTINUOUS
10
71.59
20
-67.4583
11
71.5489
21
-67.4708
0
LINE
8
BLACK
6
CONTINUOUS
10
71.5489
20
-67.4708
11
71.5063
21
-67.475
0
LINE
8
BLACK
6
CONTINUOUS
10
71.5063
20
-67.475
11
71.0688
21
-67.475
0
LINE
8
BLACK
6
CONTINUOUS
10
71.0688
20
-67.475
11
71.0261
21
-67.4708
0
LINE
8
BLACK
6
CONTINUOUS
10
71.0261
20
-67.4708
11
70.9851
21
-67.4583
0
LINE
8
BLACK
6
CONTINUOUS
10
70.9851
20
-67.4583
11
70.9472
21
-67.4381
0
LINE
8
BLACK
6
CONTINUOUS
10
70.9472
20
-67.4381
11
70.9141
21
-67.4109
0
LINE
8
BLACK
6
CONTINUOUS
10
70.9141
20
-67.4109
11
70.8869
21
-67.3778
0
LINE
8
BLACK
6
CONTINUOUS
10
70.8869
20
-67.3778
11
70.8667
21
-67.34
0
LINE
8
BLACK
6
CONTINUOUS
10
70.8667
20
-67.34
11
70.8542
21
-67.2989
0
LINE
8
BLACK
6
CONTINUOUS
10
70.8542
20
-67.2989
11
70.85
21
-67.2563
0
LINE
8
BLACK
6
CONTINUOUS
10
70.85
20
-67.2563
11
70.85
21
-66.7438
0
LINE
8
BLACK
6
CONTINUOUS
10
70.85
20
-66.7438
11
70.8542
21
-66.7011
0
LINE
8
BLACK
6
CONTINUOUS
10
70.8542
20
-66.7011
11
70.8667
21
-66.66
0
LINE
8
BLACK
6
CONTINUOUS
10
70.8667
20
-66.66
11
70.8869
21
-66.6222
0
LINE
8
BLACK
6
CONTINUOUS
10
70.8869
20
-66.6222
11
70.9141
21
-66.5891
0
LINE
8
BLACK
6
CONTINUOUS
10
70.9141
20
-66.5891
11
70.9472
21
-66.5619
0
LINE
8
BLACK
6
CONTINUOUS
10
70.9472
20
-66.5619
11
70.9851
21
-66.5417
0
LINE
8
BLACK
6
CONTINUOUS
10
70.9851
20
-66.5417
11
71.0261
21
-66.5292
0
LINE
8
BLACK
6
CONTINUOUS
10
71.0261
20
-66.5292
11
71.0688
21
-66.525
0
LINE
8
BLACK
6
CONTINUOUS
10
71.0688
20
-66.525
11
71.5063
21
-66.525
0
LINE
8
BLACK
6
CONTINUOUS
10
71.5063
20
-66.525
11
71.5489
21
-66.5292
0
LINE
8
BLACK
6
CONTINUOUS
10
69.9739
20
-66.5292
11
70.015
21
-66.5417
0
LINE
8
BLACK
6
CONTINUOUS
10
70.015
20
-66.5417
11
70.0528
21
-66.5619
0
LINE
8
BLACK
6
CONTINUOUS
10
70.0528
20
-66.5619
11
70.0859
21
-66.5891
0
LINE
8
BLACK
6
CONTINUOUS
10
70.0859
20
-66.5891
11
70.1132
21
-66.6222
0
LINE
8
BLACK
6
CONTINUOUS
10
70.1132
20
-66.6222
11
70.1334
21
-66.66
0
LINE
8
BLACK
6
CONTINUOUS
10
70.1334
20
-66.66
11
70.1458
21
-66.7011
0
LINE
8
BLACK
6
CONTINUOUS
10
70.1458
20
-66.7011
11
70.15
21
-66.7438
0
LINE
8
BLACK
6
CONTINUOUS
10
70.15
20
-66.7438
11
70.15
21
-67.2563
0
LINE
8
BLACK
6
CONTINUOUS
10
70.15
20
-67.2563
11
70.1458
21
-67.2989
0
LINE
8
BLACK
6
CONTINUOUS
10
70.1458
20
-67.2989
11
70.1334
21
-67.34
0
LINE
8
BLACK
6
CONTINUOUS
10
70.1334
20
-67.34
11
70.1132
21
-67.3778
0
LINE
8
BLACK
6
CONTINUOUS
10
70.1132
20
-67.3778
11
70.0859
21
-67.4109
0
LINE
8
BLACK
6
CONTINUOUS
10
70.0859
20
-67.4109
11
70.0528
21
-67.4381
0
LINE
8
BLACK
6
CONTINUOUS
10
70.0528
20
-67.4381
11
70.015
21
-67.4583
0
LINE
8
BLACK
6
CONTINUOUS
10
70.015
20
-67.4583
11
69.9739
21
-67.4708
0
LINE
8
BLACK
6
CONTINUOUS
10
69.9739
20
-67.4708
11
69.9313
21
-67.475
0
LINE
8
BLACK
6
CONTINUOUS
10
69.9313
20
-67.475
11
69.4938
21
-67.475
0
LINE
8
BLACK
6
CONTINUOUS
10
69.4938
20
-67.475
11
69.4511
21
-67.4708
0
LINE
8
BLACK
6
CONTINUOUS
10
69.4511
20
-67.4708
11
69.4101
21
-67.4583
0
LINE
8
BLACK
6
CONTINUOUS
10
69.4101
20
-67.4583
11
69.3722
21
-67.4381
0
LINE
8
BLACK
6
CONTINUOUS
10
69.3722
20
-67.4381
11
69.3391
21
-67.4109
0
LINE
8
BLACK
6
CONTINUOUS
10
69.3391
20
-67.4109
11
69.3119
21
-67.3778
0
LINE
8
BLACK
6
CONTINUOUS
10
69.3119
20
-67.3778
11
69.2917
21
-67.34
0
LINE
8
BLACK
6
CONTINUOUS
10
69.2917
20
-67.34
11
69.2792
21
-67.2989
0
LINE
8
BLACK
6
CONTINUOUS
10
69.2792
20
-67.2989
11
69.275
21
-67.2563
0
LINE
8
BLACK
6
CONTINUOUS
10
69.275
20
-67.2563
11
69.275
21
-66.7438
0
LINE
8
BLACK
6
CONTINUOUS
10
69.275
20
-66.7438
11
69.2792
21
-66.7011
0
LINE
8
BLACK
6
CONTINUOUS
10
69.2792
20
-66.7011
11
69.2917
21
-66.66
0
LINE
8
BLACK
6
CONTINUOUS
10
69.2917
20
-66.66
11
69.3119
21
-66.6222
0
LINE
8
BLACK
6
CONTINUOUS
10
69.3119
20
-66.6222
11
69.3391
21
-66.5891
0
LINE
8
BLACK
6
CONTINUOUS
10
69.3391
20
-66.5891
11
69.3722
21
-66.5619
0
LINE
8
BLACK
6
CONTINUOUS
10
69.3722
20
-66.5619
11
69.4101
21
-66.5417
0
LINE
8
BLACK
6
CONTINUOUS
10
69.4101
20
-66.5417
11
69.4511
21
-66.5292
0
LINE
8
BLACK
6
CONTINUOUS
10
69.4511
20
-66.5292
11
69.4938
21
-66.525
0
LINE
8
BLACK
6
CONTINUOUS
10
69.4938
20
-66.525
11
69.9313
21
-66.525
0
LINE
8
BLACK
6
CONTINUOUS
10
69.9313
20
-66.525
11
69.9739
21
-66.5292
0
LINE
8
BLACK
6
CONTINUOUS
10
56.5489
20
-66.5292
11
56.59
21
-66.5417
0
LINE
8
BLACK
6
CONTINUOUS
10
56.59
20
-66.5417
11
56.6278
21
-66.5619
0
LINE
8
BLACK
6
CONTINUOUS
10
56.6278
20
-66.5619
11
56.6609
21
-66.5891
0
LINE
8
BLACK
6
CONTINUOUS
10
56.6609
20
-66.5891
11
56.6881
21
-66.6222
0
LINE
8
BLACK
6
CONTINUOUS
10
56.6881
20
-66.6222
11
56.7083
21
-66.66
0
LINE
8
BLACK
6
CONTINUOUS
10
56.7083
20
-66.66
11
56.7208
21
-66.7011
0
LINE
8
BLACK
6
CONTINUOUS
10
56.7208
20
-66.7011
11
56.725
21
-66.7438
0
LINE
8
BLACK
6
CONTINUOUS
10
56.725
20
-66.7438
11
56.725
21
-67.2563
0
LINE
8
BLACK
6
CONTINUOUS
10
56.725
20
-67.2563
11
56.7208
21
-67.2989
0
LINE
8
BLACK
6
CONTINUOUS
10
56.7208
20
-67.2989
11
56.7083
21
-67.34
0
LINE
8
BLACK
6
CONTINUOUS
10
56.7083
20
-67.34
11
56.6881
21
-67.3778
0
LINE
8
BLACK
6
CONTINUOUS
10
56.6881
20
-67.3778
11
56.6609
21
-67.4109
0
LINE
8
BLACK
6
CONTINUOUS
10
56.6609
20
-67.4109
11
56.6278
21
-67.4381
0
LINE
8
BLACK
6
CONTINUOUS
10
56.6278
20
-67.4381
11
56.59
21
-67.4583
0
LINE
8
BLACK
6
CONTINUOUS
10
56.59
20
-67.4583
11
56.5489
21
-67.4708
0
LINE
8
BLACK
6
CONTINUOUS
10
56.5489
20
-67.4708
11
56.5063
21
-67.475
0
LINE
8
BLACK
6
CONTINUOUS
10
56.5063
20
-67.475
11
56.0688
21
-67.475
0
LINE
8
BLACK
6
CONTINUOUS
10
56.0688
20
-67.475
11
56.0261
21
-67.4708
0
LINE
8
BLACK
6
CONTINUOUS
10
56.0261
20
-67.4708
11
55.985
21
-67.4583
0
LINE
8
BLACK
6
CONTINUOUS
10
55.985
20
-67.4583
11
55.9472
21
-67.4381
0
LINE
8
BLACK
6
CONTINUOUS
10
55.9472
20
-67.4381
11
55.9141
21
-67.4109
0
LINE
8
BLACK
6
CONTINUOUS
10
55.9141
20
-67.4109
11
55.8869
21
-67.3778
0
LINE
8
BLACK
6
CONTINUOUS
10
55.8869
20
-67.3778
11
55.8667
21
-67.34
0
LINE
8
BLACK
6
CONTINUOUS
10
55.8667
20
-67.34
11
55.8542
21
-67.2989
0
LINE
8
BLACK
6
CONTINUOUS
10
55.8542
20
-67.2989
11
55.85
21
-67.2563
0
LINE
8
BLACK
6
CONTINUOUS
10
55.85
20
-67.2563
11
55.85
21
-66.7438
0
LINE
8
BLACK
6
CONTINUOUS
10
55.85
20
-66.7438
11
55.8542
21
-66.7011
0
LINE
8
BLACK
6
CONTINUOUS
10
55.8542
20
-66.7011
11
55.8667
21
-66.66
0
LINE
8
BLACK
6
CONTINUOUS
10
55.8667
20
-66.66
11
55.8869
21
-66.6222
0
LINE
8
BLACK
6
CONTINUOUS
10
55.8869
20
-66.6222
11
55.9141
21
-66.5891
0
LINE
8
BLACK
6
CONTINUOUS
10
55.9141
20
-66.5891
11
55.9472
21
-66.5619
0
LINE
8
BLACK
6
CONTINUOUS
10
55.9472
20
-66.5619
11
55.985
21
-66.5417
0
LINE
8
BLACK
6
CONTINUOUS
10
55.985
20
-66.5417
11
56.0261
21
-66.5292
0
LINE
8
BLACK
6
CONTINUOUS
10
56.0261
20
-66.5292
11
56.0688
21
-66.525
0
LINE
8
BLACK
6
CONTINUOUS
10
56.0688
20
-66.525
11
56.5063
21
-66.525
0
LINE
8
BLACK
6
CONTINUOUS
10
56.5063
20
-66.525
11
56.5489
21
-66.5292
0
LINE
8
BLACK
6
CONTINUOUS
10
55.45
20
-65.35
11
54.55
21
-65.35
0
LINE
8
BLACK
6
CONTINUOUS
10
54.55
20
-65.35
11
54.55
21
-64.55
0
LINE
8
BLACK
6
CONTINUOUS
10
54.55
20
-64.55
11
55.45
21
-64.55
0
LINE
8
BLACK
6
CONTINUOUS
10
55.45
20
-64.55
11
55.45
21
-65.35
0
LINE
8
BLACK
6
CONTINUOUS
10
70.45
20
-65.35
11
69.55
21
-65.35
0
LINE
8
BLACK
6
CONTINUOUS
10
69.55
20
-65.35
11
69.55
21
-64.55
0
LINE
8
BLACK
6
CONTINUOUS
10
69.55
20
-64.55
11
70.45
21
-64.55
0
LINE
8
BLACK
6
CONTINUOUS
10
70.45
20
-64.55
11
70.45
21
-65.35
0
LINE
8
BLACK
6
CONTINUOUS
10
56.4013
20
-64.1928
11
56.4289
21
-64.2012
0
LINE
8
BLACK
6
CONTINUOUS
10
56.4289
20
-64.2012
11
56.4544
21
-64.2149
0
LINE
8
BLACK
6
CONTINUOUS
10
56.4544
20
-64.2149
11
56.4768
21
-64.2332
0
LINE
8
BLACK
6
CONTINUOUS
10
56.4768
20
-64.2332
11
56.4951
21
-64.2556
0
LINE
8
BLACK
6
CONTINUOUS
10
56.4951
20
-64.2556
11
56.5088
21
-64.2811
0
LINE
8
BLACK
6
CONTINUOUS
10
56.5088
20
-64.2811
11
56.5172
21
-64.3087
0
LINE
8
BLACK
6
CONTINUOUS
10
56.5172
20
-64.3087
11
56.52
21
-64.3375
0
LINE
8
BLACK
6
CONTINUOUS
10
56.52
20
-64.3375
11
56.52
21
-64.6325
0
LINE
8
BLACK
6
CONTINUOUS
10
56.52
20
-64.6325
11
56.5172
21
-64.6613
0
LINE
8
BLACK
6
CONTINUOUS
10
56.5172
20
-64.6613
11
56.5088
21
-64.6889
0
LINE
8
BLACK
6
CONTINUOUS
10
56.5088
20
-64.6889
11
56.4951
21
-64.7144
0
LINE
8
BLACK
6
CONTINUOUS
10
56.4951
20
-64.7144
11
56.4768
21
-64.7368
0
LINE
8
BLACK
6
CONTINUOUS
10
56.4768
20
-64.7368
11
56.4544
21
-64.7551
0
LINE
8
BLACK
6
CONTINUOUS
10
56.4544
20
-64.7551
11
56.4289
21
-64.7688
0
LINE
8
BLACK
6
CONTINUOUS
10
56.4289
20
-64.7688
11
56.4013
21
-64.7772
0
LINE
8
BLACK
6
CONTINUOUS
10
56.4013
20
-64.7772
11
56.3725
21
-64.78
0
LINE
8
BLACK
6
CONTINUOUS
10
56.3725
20
-64.78
11
56.0275
21
-64.78
0
LINE
8
BLACK
6
CONTINUOUS
10
56.0275
20
-64.78
11
55.9987
21
-64.7772
0
LINE
8
BLACK
6
CONTINUOUS
10
55.9987
20
-64.7772
11
55.9711
21
-64.7688
0
LINE
8
BLACK
6
CONTINUOUS
10
55.9711
20
-64.7688
11
55.9456
21
-64.7551
0
LINE
8
BLACK
6
CONTINUOUS
10
55.9456
20
-64.7551
11
55.9232
21
-64.7368
0
LINE
8
BLACK
6
CONTINUOUS
10
55.9232
20
-64.7368
11
55.9049
21
-64.7144
0
LINE
8
BLACK
6
CONTINUOUS
10
55.9049
20
-64.7144
11
55.8912
21
-64.6889
0
LINE
8
BLACK
6
CONTINUOUS
10
55.8912
20
-64.6889
11
55.8828
21
-64.6613
0
LINE
8
BLACK
6
CONTINUOUS
10
55.8828
20
-64.6613
11
55.88
21
-64.6325
0
LINE
8
BLACK
6
CONTINUOUS
10
55.88
20
-64.6325
11
55.88
21
-64.3375
0
LINE
8
BLACK
6
CONTINUOUS
10
55.88
20
-64.3375
11
55.8828
21
-64.3087
0
LINE
8
BLACK
6
CONTINUOUS
10
55.8828
20
-64.3087
11
55.8912
21
-64.2811
0
LINE
8
BLACK
6
CONTINUOUS
10
55.8912
20
-64.2811
11
55.9049
21
-64.2556
0
LINE
8
BLACK
6
CONTINUOUS
10
55.9049
20
-64.2556
11
55.9232
21
-64.2332
0
LINE
8
BLACK
6
CONTINUOUS
10
55.9232
20
-64.2332
11
55.9456
21
-64.2149
0
LINE
8
BLACK
6
CONTINUOUS
10
55.9456
20
-64.2149
11
55.9711
21
-64.2012
0
LINE
8
BLACK
6
CONTINUOUS
10
55.9711
20
-64.2012
11
55.9987
21
-64.1928
0
LINE
8
BLACK
6
CONTINUOUS
10
55.9987
20
-64.1928
11
56.0275
21
-64.19
0
LINE
8
BLACK
6
CONTINUOUS
10
56.0275
20
-64.19
11
56.3725
21
-64.19
0
LINE
8
BLACK
6
CONTINUOUS
10
56.3725
20
-64.19
11
56.4013
21
-64.1928
0
LINE
8
BLACK
6
CONTINUOUS
10
71.4013
20
-64.1928
11
71.429
21
-64.2012
0
LINE
8
BLACK
6
CONTINUOUS
10
71.429
20
-64.2012
11
71.4545
21
-64.2149
0
LINE
8
BLACK
6
CONTINUOUS
10
71.4545
20
-64.2149
11
71.4768
21
-64.2332
0
LINE
8
BLACK
6
CONTINUOUS
10
71.4768
20
-64.2332
11
71.4952
21
-64.2556
0
LINE
8
BLACK
6
CONTINUOUS
10
71.4952
20
-64.2556
11
71.5088
21
-64.2811
0
LINE
8
BLACK
6
CONTINUOUS
10
71.5088
20
-64.2811
11
71.5172
21
-64.3087
0
LINE
8
BLACK
6
CONTINUOUS
10
71.5172
20
-64.3087
11
71.52
21
-64.3375
0
LINE
8
BLACK
6
CONTINUOUS
10
71.52
20
-64.3375
11
71.52
21
-64.6325
0
LINE
8
BLACK
6
CONTINUOUS
10
71.52
20
-64.6325
11
71.5172
21
-64.6613
0
LINE
8
BLACK
6
CONTINUOUS
10
71.5172
20
-64.6613
11
71.5088
21
-64.6889
0
LINE
8
BLACK
6
CONTINUOUS
10
71.5088
20
-64.6889
11
71.4952
21
-64.7144
0
LINE
8
BLACK
6
CONTINUOUS
10
71.4952
20
-64.7144
11
71.4768
21
-64.7368
0
LINE
8
BLACK
6
CONTINUOUS
10
71.4768
20
-64.7368
11
71.4545
21
-64.7551
0
LINE
8
BLACK
6
CONTINUOUS
10
71.4545
20
-64.7551
11
71.429
21
-64.7688
0
LINE
8
BLACK
6
CONTINUOUS
10
71.429
20
-64.7688
11
71.4013
21
-64.7772
0
LINE
8
BLACK
6
CONTINUOUS
10
71.4013
20
-64.7772
11
71.3725
21
-64.78
0
LINE
8
BLACK
6
CONTINUOUS
10
71.3725
20
-64.78
11
71.0275
21
-64.78
0
LINE
8
BLACK
6
CONTINUOUS
10
71.0275
20
-64.78
11
70.9987
21
-64.7772
0
LINE
8
BLACK
6
CONTINUOUS
10
70.9987
20
-64.7772
11
70.9711
21
-64.7688
0
LINE
8
BLACK
6
CONTINUOUS
10
70.9711
20
-64.7688
11
70.9456
21
-64.7551
0
LINE
8
BLACK
6
CONTINUOUS
10
70.9456
20
-64.7551
11
70.9232
21
-64.7368
0
LINE
8
BLACK
6
CONTINUOUS
10
70.9232
20
-64.7368
11
70.9049
21
-64.7144
0
LINE
8
BLACK
6
CONTINUOUS
10
70.9049
20
-64.7144
11
70.8912
21
-64.6889
0
LINE
8
BLACK
6
CONTINUOUS
10
70.8912
20
-64.6889
11
70.8829
21
-64.6613
0
LINE
8
BLACK
6
CONTINUOUS
10
70.8829
20
-64.6613
11
70.88
21
-64.6325
0
LINE
8
BLACK
6
CONTINUOUS
10
70.88
20
-64.6325
11
70.88
21
-64.3375
0
LINE
8
BLACK
6
CONTINUOUS
10
70.88
20
-64.3375
11
70.8829
21
-64.3087
0
LINE
8
BLACK
6
CONTINUOUS
10
70.8829
20
-64.3087
11
70.8912
21
-64.2811
0
LINE
8
BLACK
6
CONTINUOUS
10
70.8912
20
-64.2811
11
70.9049
21
-64.2556
0
LINE
8
BLACK
6
CONTINUOUS
10
70.9049
20
-64.2556
11
70.9232
21
-64.2332
0
LINE
8
BLACK
6
CONTINUOUS
10
70.9232
20
-64.2332
11
70.9456
21
-64.2149
0
LINE
8
BLACK
6
CONTINUOUS
10
70.9456
20
-64.2149
11
70.9711
21
-64.2012
0
LINE
8
BLACK
6
CONTINUOUS
10
70.9711
20
-64.2012
11
70.9987
21
-64.1928
0
LINE
8
BLACK
6
CONTINUOUS
10
70.9987
20
-64.1928
11
71.0275
21
-64.19
0
LINE
8
BLACK
6
CONTINUOUS
10
71.0275
20
-64.19
11
71.3725
21
-64.19
0
LINE
8
BLACK
6
CONTINUOUS
10
71.3725
20
-64.19
11
71.4013
21
-64.1928
0
LINE
8
BLACK
6
CONTINUOUS
10
53.45
20
-64.4
11
52.55
21
-64.4
0
LINE
8
BLACK
6
CONTINUOUS
10
52.55
20
-64.4
11
52.55
21
-63.6
0
LINE
8
BLACK
6
CONTINUOUS
10
52.55
20
-63.6
11
53.45
21
-63.6
0
LINE
8
BLACK
6
CONTINUOUS
10
53.45
20
-63.6
11
53.45
21
-64.4
0
LINE
8
BLACK
6
CONTINUOUS
10
68.45
20
-64.4
11
67.55
21
-64.4
0
LINE
8
BLACK
6
CONTINUOUS
10
67.55
20
-64.4
11
67.55
21
-63.6
0
LINE
8
BLACK
6
CONTINUOUS
10
67.55
20
-63.6
11
68.45
21
-63.6
0
LINE
8
BLACK
6
CONTINUOUS
10
68.45
20
-63.6
11
68.45
21
-64.4
0
LINE
8
BLACK
6
CONTINUOUS
10
56.4013
20
-63.2228
11
56.4289
21
-63.2312
0
LINE
8
BLACK
6
CONTINUOUS
10
56.4289
20
-63.2312
11
56.4544
21
-63.2449
0
LINE
8
BLACK
6
CONTINUOUS
10
56.4544
20
-63.2449
11
56.4768
21
-63.2632
0
LINE
8
BLACK
6
CONTINUOUS
10
56.4768
20
-63.2632
11
56.4951
21
-63.2856
0
LINE
8
BLACK
6
CONTINUOUS
10
56.4951
20
-63.2856
11
56.5088
21
-63.3111
0
LINE
8
BLACK
6
CONTINUOUS
10
56.5088
20
-63.3111
11
56.5172
21
-63.3387
0
LINE
8
BLACK
6
CONTINUOUS
10
56.5172
20
-63.3387
11
56.52
21
-63.3675
0
LINE
8
BLACK
6
CONTINUOUS
10
56.52
20
-63.3675
11
56.52
21
-63.6625
0
LINE
8
BLACK
6
CONTINUOUS
10
56.52
20
-63.6625
11
56.5172
21
-63.6913
0
LINE
8
BLACK
6
CONTINUOUS
10
56.5172
20
-63.6913
11
56.5088
21
-63.7189
0
LINE
8
BLACK
6
CONTINUOUS
10
56.5088
20
-63.7189
11
56.4951
21
-63.7444
0
LINE
8
BLACK
6
CONTINUOUS
10
56.4951
20
-63.7444
11
56.4768
21
-63.7668
0
LINE
8
BLACK
6
CONTINUOUS
10
56.4768
20
-63.7668
11
56.4544
21
-63.7851
0
LINE
8
BLACK
6
CONTINUOUS
10
56.4544
20
-63.7851
11
56.4289
21
-63.7988
0
LINE
8
BLACK
6
CONTINUOUS
10
56.4289
20
-63.7988
11
56.4013
21
-63.8072
0
LINE
8
BLACK
6
CONTINUOUS
10
56.4013
20
-63.8072
11
56.3725
21
-63.81
0
LINE
8
BLACK
6
CONTINUOUS
10
56.3725
20
-63.81
11
56.0275
21
-63.81
0
LINE
8
BLACK
6
CONTINUOUS
10
56.0275
20
-63.81
11
55.9987
21
-63.8072
0
LINE
8
BLACK
6
CONTINUOUS
10
55.9987
20
-63.8072
11
55.9711
21
-63.7988
0
LINE
8
BLACK
6
CONTINUOUS
10
55.9711
20
-63.7988
11
55.9456
21
-63.7851
0
LINE
8
BLACK
6
CONTINUOUS
10
55.9456
20
-63.7851
11
55.9232
21
-63.7668
0
LINE
8
BLACK
6
CONTINUOUS
10
55.9232
20
-63.7668
11
55.9049
21
-63.7444
0
LINE
8
BLACK
6
CONTINUOUS
10
55.9049
20
-63.7444
11
55.8912
21
-63.7189
0
LINE
8
BLACK
6
CONTINUOUS
10
55.8912
20
-63.7189
11
55.8828
21
-63.6913
0
LINE
8
BLACK
6
CONTINUOUS
10
55.8828
20
-63.6913
11
55.88
21
-63.6625
0
LINE
8
BLACK
6
CONTINUOUS
10
55.88
20
-63.6625
11
55.88
21
-63.3675
0
LINE
8
BLACK
6
CONTINUOUS
10
55.88
20
-63.3675
11
55.8828
21
-63.3387
0
LINE
8
BLACK
6
CONTINUOUS
10
55.8828
20
-63.3387
11
55.8912
21
-63.3111
0
LINE
8
BLACK
6
CONTINUOUS
10
55.8912
20
-63.3111
11
55.9049
21
-63.2856
0
LINE
8
BLACK
6
CONTINUOUS
10
55.9049
20
-63.2856
11
55.9232
21
-63.2632
0
LINE
8
BLACK
6
CONTINUOUS
10
55.9232
20
-63.2632
11
55.9456
21
-63.2449
0
LINE
8
BLACK
6
CONTINUOUS
10
55.9456
20
-63.2449
11
55.9711
21
-63.2312
0
LINE
8
BLACK
6
CONTINUOUS
10
55.9711
20
-63.2312
11
55.9987
21
-63.2228
0
LINE
8
BLACK
6
CONTINUOUS
10
55.9987
20
-63.2228
11
56.0275
21
-63.22
0
LINE
8
BLACK
6
CONTINUOUS
10
56.0275
20
-63.22
11
56.3725
21
-63.22
0
LINE
8
BLACK
6
CONTINUOUS
10
56.3725
20
-63.22
11
56.4013
21
-63.2228
0
LINE
8
BLACK
6
CONTINUOUS
10
71.4013
20
-63.2228
11
71.429
21
-63.2312
0
LINE
8
BLACK
6
CONTINUOUS
10
71.429
20
-63.2312
11
71.4545
21
-63.2449
0
LINE
8
BLACK
6
CONTINUOUS
10
71.4545
20
-63.2449
11
71.4768
21
-63.2632
0
LINE
8
BLACK
6
CONTINUOUS
10
71.4768
20
-63.2632
11
71.4952
21
-63.2856
0
LINE
8
BLACK
6
CONTINUOUS
10
71.4952
20
-63.2856
11
71.5088
21
-63.3111
0
LINE
8
BLACK
6
CONTINUOUS
10
71.5088
20
-63.3111
11
71.5172
21
-63.3387
0
LINE
8
BLACK
6
CONTINUOUS
10
71.5172
20
-63.3387
11
71.52
21
-63.3675
0
LINE
8
BLACK
6
CONTINUOUS
10
71.52
20
-63.3675
11
71.52
21
-63.6625
0
LINE
8
BLACK
6
CONTINUOUS
10
71.52
20
-63.6625
11
71.5172
21
-63.6913
0
LINE
8
BLACK
6
CONTINUOUS
10
71.5172
20
-63.6913
11
71.5088
21
-63.7189
0
LINE
8
BLACK
6
CONTINUOUS
10
71.5088
20
-63.7189
11
71.4952
21
-63.7444
0
LINE
8
BLACK
6
CONTINUOUS
10
71.4952
20
-63.7444
11
71.4768
21
-63.7668
0
LINE
8
BLACK
6
CONTINUOUS
10
71.4768
20
-63.7668
11
71.4545
21
-63.7851
0
LINE
8
BLACK
6
CONTINUOUS
10
71.4545
20
-63.7851
11
71.429
21
-63.7988
0
LINE
8
BLACK
6
CONTINUOUS
10
71.429
20
-63.7988
11
71.4013
21
-63.8072
0
LINE
8
BLACK
6
CONTINUOUS
10
71.4013
20
-63.8072
11
71.3725
21
-63.81
0
LINE
8
BLACK
6
CONTINUOUS
10
71.3725
20
-63.81
11
71.0275
21
-63.81
0
LINE
8
BLACK
6
CONTINUOUS
10
71.0275
20
-63.81
11
70.9987
21
-63.8072
0
LINE
8
BLACK
6
CONTINUOUS
10
70.9987
20
-63.8072
11
70.9711
21
-63.7988
0
LINE
8
BLACK
6
CONTINUOUS
10
70.9711
20
-63.7988
11
70.9456
21
-63.7851
0
LINE
8
BLACK
6
CONTINUOUS
10
70.9456
20
-63.7851
11
70.9232
21
-63.7668
0
LINE
8
BLACK
6
CONTINUOUS
10
70.9232
20
-63.7668
11
70.9049
21
-63.7444
0
LINE
8
BLACK
6
CONTINUOUS
10
70.9049
20
-63.7444
11
70.8912
21
-63.7189
0
LINE
8
BLACK
6
CONTINUOUS
10
70.8912
20
-63.7189
11
70.8829
21
-63.6913
0
LINE
8
BLACK
6
CONTINUOUS
10
70.8829
20
-63.6913
11
70.88
21
-63.6625
0
LINE
8
BLACK
6
CONTINUOUS
10
70.88
20
-63.6625
11
70.88
21
-63.3675
0
LINE
8
BLACK
6
CONTINUOUS
10
70.88
20
-63.3675
11
70.8829
21
-63.3387
0
LINE
8
BLACK
6
CONTINUOUS
10
70.8829
20
-63.3387
11
70.8912
21
-63.3111
0
LINE
8
BLACK
6
CONTINUOUS
10
70.8912
20
-63.3111
11
70.9049
21
-63.2856
0
LINE
8
BLACK
6
CONTINUOUS
10
70.9049
20
-63.2856
11
70.9232
21
-63.2632
0
LINE
8
BLACK
6
CONTINUOUS
10
70.9232
20
-63.2632
11
70.9456
21
-63.2449
0
LINE
8
BLACK
6
CONTINUOUS
10
70.9456
20
-63.2449
11
70.9711
21
-63.2312
0
LINE
8
BLACK
6
CONTINUOUS
10
70.9711
20
-63.2312
11
70.9987
21
-63.2228
0
LINE
8
BLACK
6
CONTINUOUS
10
70.9987
20
-63.2228
11
71.0275
21
-63.22
0
LINE
8
BLACK
6
CONTINUOUS
10
71.0275
20
-63.22
11
71.3725
21
-63.22
0
LINE
8
BLACK
6
CONTINUOUS
10
71.3725
20
-63.22
11
71.4013
21
-63.2228
0
LINE
8
BLACK
6
CONTINUOUS
10
70.45
20
-63.45
11
69.55
21
-63.45
0
LINE
8
BLACK
6
CONTINUOUS
10
69.55
20
-63.45
11
69.55
21
-62.65
0
LINE
8
BLACK
6
CONTINUOUS
10
69.55
20
-62.65
11
70.45
21
-62.65
0
LINE
8
BLACK
6
CONTINUOUS
10
70.45
20
-62.65
11
70.45
21
-63.45
0
LINE
8
BLACK
6
CONTINUOUS
10
55.45
20
-63.45
11
54.55
21
-63.45
0
LINE
8
BLACK
6
CONTINUOUS
10
54.55
20
-63.45
11
54.55
21
-62.65
0
LINE
8
BLACK
6
CONTINUOUS
10
54.55
20
-62.65
11
55.45
21
-62.65
0
LINE
8
BLACK
6
CONTINUOUS
10
55.45
20
-62.65
11
55.45
21
-63.45
0
LINE
8
BLACK
6
CONTINUOUS
10
59.6913
20
-62.6828
11
59.7189
21
-62.6912
0
LINE
8
BLACK
6
CONTINUOUS
10
59.7189
20
-62.6912
11
59.7444
21
-62.7049
0
LINE
8
BLACK
6
CONTINUOUS
10
59.7444
20
-62.7049
11
59.7668
21
-62.7232
0
LINE
8
BLACK
6
CONTINUOUS
10
59.7668
20
-62.7232
11
59.7851
21
-62.7456
0
LINE
8
BLACK
6
CONTINUOUS
10
59.7851
20
-62.7456
11
59.7988
21
-62.7711
0
LINE
8
BLACK
6
CONTINUOUS
10
59.7988
20
-62.7711
11
59.8072
21
-62.7987
0
LINE
8
BLACK
6
CONTINUOUS
10
59.8072
20
-62.7987
11
59.81
21
-62.8275
0
LINE
8
BLACK
6
CONTINUOUS
10
59.81
20
-62.8275
11
59.81
21
-63.1725
0
LINE
8
BLACK
6
CONTINUOUS
10
59.81
20
-63.1725
11
59.8072
21
-63.2013
0
LINE
8
BLACK
6
CONTINUOUS
10
59.8072
20
-63.2013
11
59.7988
21
-63.2289
0
LINE
8
BLACK
6
CONTINUOUS
10
59.7988
20
-63.2289
11
59.7851
21
-63.2544
0
LINE
8
BLACK
6
CONTINUOUS
10
59.7851
20
-63.2544
11
59.7668
21
-63.2768
0
LINE
8
BLACK
6
CONTINUOUS
10
59.7668
20
-63.2768
11
59.7444
21
-63.2951
0
LINE
8
BLACK
6
CONTINUOUS
10
59.7444
20
-63.2951
11
59.7189
21
-63.3088
0
LINE
8
BLACK
6
CONTINUOUS
10
59.7189
20
-63.3088
11
59.6913
21
-63.3172
0
LINE
8
BLACK
6
CONTINUOUS
10
59.6913
20
-63.3172
11
59.6625
21
-63.32
0
LINE
8
BLACK
6
CONTINUOUS
10
59.6625
20
-63.32
11
59.3675
21
-63.32
0
LINE
8
BLACK
6
CONTINUOUS
10
59.3675
20
-63.32
11
59.3387
21
-63.3172
0
LINE
8
BLACK
6
CONTINUOUS
10
59.3387
20
-63.3172
11
59.3111
21
-63.3088
0
LINE
8
BLACK
6
CONTINUOUS
10
59.3111
20
-63.3088
11
59.2856
21
-63.2951
0
LINE
8
BLACK
6
CONTINUOUS
10
59.2856
20
-63.2951
11
59.2632
21
-63.2768
0
LINE
8
BLACK
6
CONTINUOUS
10
59.2632
20
-63.2768
11
59.2449
21
-63.2544
0
LINE
8
BLACK
6
CONTINUOUS
10
59.2449
20
-63.2544
11
59.2312
21
-63.2289
0
LINE
8
BLACK
6
CONTINUOUS
10
59.2312
20
-63.2289
11
59.2228
21
-63.2013
0
LINE
8
BLACK
6
CONTINUOUS
10
59.2228
20
-63.2013
11
59.22
21
-63.1725
0
LINE
8
BLACK
6
CONTINUOUS
10
59.22
20
-63.1725
11
59.22
21
-62.8275
0
LINE
8
BLACK
6
CONTINUOUS
10
59.22
20
-62.8275
11
59.2228
21
-62.7987
0
LINE
8
BLACK
6
CONTINUOUS
10
59.2228
20
-62.7987
11
59.2312
21
-62.7711
0
LINE
8
BLACK
6
CONTINUOUS
10
59.2312
20
-62.7711
11
59.2449
21
-62.7456
0
LINE
8
BLACK
6
CONTINUOUS
10
59.2449
20
-62.7456
11
59.2632
21
-62.7232
0
LINE
8
BLACK
6
CONTINUOUS
10
59.2632
20
-62.7232
11
59.2856
21
-62.7049
0
LINE
8
BLACK
6
CONTINUOUS
10
59.2856
20
-62.7049
11
59.3111
21
-62.6912
0
LINE
8
BLACK
6
CONTINUOUS
10
59.3111
20
-62.6912
11
59.3387
21
-62.6828
0
LINE
8
BLACK
6
CONTINUOUS
10
59.3387
20
-62.6828
11
59.3675
21
-62.68
0
LINE
8
BLACK
6
CONTINUOUS
10
59.3675
20
-62.68
11
59.6625
21
-62.68
0
LINE
8
BLACK
6
CONTINUOUS
10
59.6625
20
-62.68
11
59.6913
21
-62.6828
0
LINE
8
BLACK
6
CONTINUOUS
10
60.6613
20
-62.6828
11
60.6889
21
-62.6912
0
LINE
8
BLACK
6
CONTINUOUS
10
60.6889
20
-62.6912
11
60.7144
21
-62.7049
0
LINE
8
BLACK
6
CONTINUOUS
10
60.7144
20
-62.7049
11
60.7368
21
-62.7232
0
LINE
8
BLACK
6
CONTINUOUS
10
60.7368
20
-62.7232
11
60.7551
21
-62.7456
0
LINE
8
BLACK
6
CONTINUOUS
10
60.7551
20
-62.7456
11
60.7688
21
-62.7711
0
LINE
8
BLACK
6
CONTINUOUS
10
60.7688
20
-62.7711
11
60.7772
21
-62.7987
0
LINE
8
BLACK
6
CONTINUOUS
10
60.7772
20
-62.7987
11
60.78
21
-62.8275
0
LINE
8
BLACK
6
CONTINUOUS
10
60.78
20
-62.8275
11
60.78
21
-63.1725
0
LINE
8
BLACK
6
CONTINUOUS
10
60.78
20
-63.1725
11
60.7772
21
-63.2013
0
LINE
8
BLACK
6
CONTINUOUS
10
60.7772
20
-63.2013
11
60.7688
21
-63.2289
0
LINE
8
BLACK
6
CONTINUOUS
10
60.7688
20
-63.2289
11
60.7551
21
-63.2544
0
LINE
8
BLACK
6
CONTINUOUS
10
60.7551
20
-63.2544
11
60.7368
21
-63.2768
0
LINE
8
BLACK
6
CONTINUOUS
10
60.7368
20
-63.2768
11
60.7144
21
-63.2951
0
LINE
8
BLACK
6
CONTINUOUS
10
60.7144
20
-63.2951
11
60.6889
21
-63.3088
0
LINE
8
BLACK
6
CONTINUOUS
10
60.6889
20
-63.3088
11
60.6613
21
-63.3172
0
LINE
8
BLACK
6
CONTINUOUS
10
60.6613
20
-63.3172
11
60.6325
21
-63.32
0
LINE
8
BLACK
6
CONTINUOUS
10
60.6325
20
-63.32
11
60.3375
21
-63.32
0
LINE
8
BLACK
6
CONTINUOUS
10
60.3375
20
-63.32
11
60.3087
21
-63.3172
0
LINE
8
BLACK
6
CONTINUOUS
10
60.3087
20
-63.3172
11
60.2811
21
-63.3088
0
LINE
8
BLACK
6
CONTINUOUS
10
60.2811
20
-63.3088
11
60.2556
21
-63.2951
0
LINE
8
BLACK
6
CONTINUOUS
10
60.2556
20
-63.2951
11
60.2332
21
-63.2768
0
LINE
8
BLACK
6
CONTINUOUS
10
60.2332
20
-63.2768
11
60.2149
21
-63.2544
0
LINE
8
BLACK
6
CONTINUOUS
10
60.2149
20
-63.2544
11
60.2012
21
-63.2289
0
LINE
8
BLACK
6
CONTINUOUS
10
60.2012
20
-63.2289
11
60.1928
21
-63.2013
0
LINE
8
BLACK
6
CONTINUOUS
10
60.1928
20
-63.2013
11
60.19
21
-63.1725
0
LINE
8
BLACK
6
CONTINUOUS
10
60.19
20
-63.1725
11
60.19
21
-62.8275
0
LINE
8
BLACK
6
CONTINUOUS
10
60.19
20
-62.8275
11
60.1928
21
-62.7987
0
LINE
8
BLACK
6
CONTINUOUS
10
60.1928
20
-62.7987
11
60.2012
21
-62.7711
0
LINE
8
BLACK
6
CONTINUOUS
10
60.2012
20
-62.7711
11
60.2149
21
-62.7456
0
LINE
8
BLACK
6
CONTINUOUS
10
60.2149
20
-62.7456
11
60.2332
21
-62.7232
0
LINE
8
BLACK
6
CONTINUOUS
10
60.2332
20
-62.7232
11
60.2556
21
-62.7049
0
LINE
8
BLACK
6
CONTINUOUS
10
60.2556
20
-62.7049
11
60.2811
21
-62.6912
0
LINE
8
BLACK
6
CONTINUOUS
10
60.2811
20
-62.6912
11
60.3087
21
-62.6828
0
LINE
8
BLACK
6
CONTINUOUS
10
60.3087
20
-62.6828
11
60.3375
21
-62.68
0
LINE
8
BLACK
6
CONTINUOUS
10
60.3375
20
-62.68
11
60.6325
21
-62.68
0
LINE
8
BLACK
6
CONTINUOUS
10
60.6325
20
-62.68
11
60.6613
21
-62.6828
0
LINE
8
BLACK
6
CONTINUOUS
10
75.6613
20
-62.6828
11
75.689
21
-62.6912
0
LINE
8
BLACK
6
CONTINUOUS
10
75.689
20
-62.6912
11
75.7145
21
-62.7049
0
LINE
8
BLACK
6
CONTINUOUS
10
75.7145
20
-62.7049
11
75.7368
21
-62.7232
0
LINE
8
BLACK
6
CONTINUOUS
10
75.7368
20
-62.7232
11
75.7552
21
-62.7456
0
LINE
8
BLACK
6
CONTINUOUS
10
75.7552
20
-62.7456
11
75.7688
21
-62.7711
0
LINE
8
BLACK
6
CONTINUOUS
10
75.7688
20
-62.7711
11
75.7772
21
-62.7987
0
LINE
8
BLACK
6
CONTINUOUS
10
75.7772
20
-62.7987
11
75.78
21
-62.8275
0
LINE
8
BLACK
6
CONTINUOUS
10
75.78
20
-62.8275
11
75.78
21
-63.1725
0
LINE
8
BLACK
6
CONTINUOUS
10
75.78
20
-63.1725
11
75.7772
21
-63.2013
0
LINE
8
BLACK
6
CONTINUOUS
10
75.7772
20
-63.2013
11
75.7688
21
-63.2289
0
LINE
8
BLACK
6
CONTINUOUS
10
75.7688
20
-63.2289
11
75.7552
21
-63.2544
0
LINE
8
BLACK
6
CONTINUOUS
10
75.7552
20
-63.2544
11
75.7368
21
-63.2768
0
LINE
8
BLACK
6
CONTINUOUS
10
75.7368
20
-63.2768
11
75.7145
21
-63.2951
0
LINE
8
BLACK
6
CONTINUOUS
10
75.7145
20
-63.2951
11
75.689
21
-63.3088
0
LINE
8
BLACK
6
CONTINUOUS
10
75.689
20
-63.3088
11
75.6613
21
-63.3172
0
LINE
8
BLACK
6
CONTINUOUS
10
75.6613
20
-63.3172
11
75.6325
21
-63.32
0
LINE
8
BLACK
6
CONTINUOUS
10
75.6325
20
-63.32
11
75.3375
21
-63.32
0
LINE
8
BLACK
6
CONTINUOUS
10
75.3375
20
-63.32
11
75.3087
21
-63.3172
0
LINE
8
BLACK
6
CONTINUOUS
10
75.3087
20
-63.3172
11
75.2811
21
-63.3088
0
LINE
8
BLACK
6
CONTINUOUS
10
75.2811
20
-63.3088
11
75.2556
21
-63.2951
0
LINE
8
BLACK
6
CONTINUOUS
10
75.2556
20
-63.2951
11
75.2332
21
-63.2768
0
LINE
8
BLACK
6
CONTINUOUS
10
75.2332
20
-63.2768
11
75.2149
21
-63.2544
0
LINE
8
BLACK
6
CONTINUOUS
10
75.2149
20
-63.2544
11
75.2012
21
-63.2289
0
LINE
8
BLACK
6
CONTINUOUS
10
75.2012
20
-63.2289
11
75.1929
21
-63.2013
0
LINE
8
BLACK
6
CONTINUOUS
10
75.1929
20
-63.2013
11
75.19
21
-63.1725
0
LINE
8
BLACK
6
CONTINUOUS
10
75.19
20
-63.1725
11
75.19
21
-62.8275
0
LINE
8
BLACK
6
CONTINUOUS
10
75.19
20
-62.8275
11
75.1929
21
-62.7987
0
LINE
8
BLACK
6
CONTINUOUS
10
75.1929
20
-62.7987
11
75.2012
21
-62.7711
0
LINE
8
BLACK
6
CONTINUOUS
10
75.2012
20
-62.7711
11
75.2149
21
-62.7456
0
LINE
8
BLACK
6
CONTINUOUS
10
75.2149
20
-62.7456
11
75.2332
21
-62.7232
0
LINE
8
BLACK
6
CONTINUOUS
10
75.2332
20
-62.7232
11
75.2556
21
-62.7049
0
LINE
8
BLACK
6
CONTINUOUS
10
75.2556
20
-62.7049
11
75.2811
21
-62.6912
0
LINE
8
BLACK
6
CONTINUOUS
10
75.2811
20
-62.6912
11
75.3087
21
-62.6828
0
LINE
8
BLACK
6
CONTINUOUS
10
75.3087
20
-62.6828
11
75.3375
21
-62.68
0
LINE
8
BLACK
6
CONTINUOUS
10
75.3375
20
-62.68
11
75.6325
21
-62.68
0
LINE
8
BLACK
6
CONTINUOUS
10
75.6325
20
-62.68
11
75.6613
21
-62.6828
0
LINE
8
BLACK
6
CONTINUOUS
10
74.6913
20
-62.6828
11
74.719
21
-62.6912
0
LINE
8
BLACK
6
CONTINUOUS
10
74.719
20
-62.6912
11
74.7445
21
-62.7049
0
LINE
8
BLACK
6
CONTINUOUS
10
74.7445
20
-62.7049
11
74.7668
21
-62.7232
0
LINE
8
BLACK
6
CONTINUOUS
10
74.7668
20
-62.7232
11
74.7852
21
-62.7456
0
LINE
8
BLACK
6
CONTINUOUS
10
74.7852
20
-62.7456
11
74.7988
21
-62.7711
0
LINE
8
BLACK
6
CONTINUOUS
10
74.7988
20
-62.7711
11
74.8072
21
-62.7987
0
LINE
8
BLACK
6
CONTINUOUS
10
74.8072
20
-62.7987
11
74.81
21
-62.8275
0
LINE
8
BLACK
6
CONTINUOUS
10
74.81
20
-62.8275
11
74.81
21
-63.1725
0
LINE
8
BLACK
6
CONTINUOUS
10
74.81
20
-63.1725
11
74.8072
21
-63.2013
0
LINE
8
BLACK
6
CONTINUOUS
10
74.8072
20
-63.2013
11
74.7988
21
-63.2289
0
LINE
8
BLACK
6
CONTINUOUS
10
74.7988
20
-63.2289
11
74.7852
21
-63.2544
0
LINE
8
BLACK
6
CONTINUOUS
10
74.7852
20
-63.2544
11
74.7668
21
-63.2768
0
LINE
8
BLACK
6
CONTINUOUS
10
74.7668
20
-63.2768
11
74.7445
21
-63.2951
0
LINE
8
BLACK
6
CONTINUOUS
10
74.7445
20
-63.2951
11
74.719
21
-63.3088
0
LINE
8
BLACK
6
CONTINUOUS
10
74.719
20
-63.3088
11
74.6913
21
-63.3172
0
LINE
8
BLACK
6
CONTINUOUS
10
74.6913
20
-63.3172
11
74.6625
21
-63.32
0
LINE
8
BLACK
6
CONTINUOUS
10
74.6625
20
-63.32
11
74.3675
21
-63.32
0
LINE
8
BLACK
6
CONTINUOUS
10
74.3675
20
-63.32
11
74.3387
21
-63.3172
0
LINE
8
BLACK
6
CONTINUOUS
10
74.3387
20
-63.3172
11
74.3111
21
-63.3088
0
LINE
8
BLACK
6
CONTINUOUS
10
74.3111
20
-63.3088
11
74.2856
21
-63.2951
0
LINE
8
BLACK
6
CONTINUOUS
10
74.2856
20
-63.2951
11
74.2632
21
-63.2768
0
LINE
8
BLACK
6
CONTINUOUS
10
74.2632
20
-63.2768
11
74.2449
21
-63.2544
0
LINE
8
BLACK
6
CONTINUOUS
10
74.2449
20
-63.2544
11
74.2312
21
-63.2289
0
LINE
8
BLACK
6
CONTINUOUS
10
74.2312
20
-63.2289
11
74.2229
21
-63.2013
0
LINE
8
BLACK
6
CONTINUOUS
10
74.2229
20
-63.2013
11
74.22
21
-63.1725
0
LINE
8
BLACK
6
CONTINUOUS
10
74.22
20
-63.1725
11
74.22
21
-62.8275
0
LINE
8
BLACK
6
CONTINUOUS
10
74.22
20
-62.8275
11
74.2229
21
-62.7987
0
LINE
8
BLACK
6
CONTINUOUS
10
74.2229
20
-62.7987
11
74.2312
21
-62.7711
0
LINE
8
BLACK
6
CONTINUOUS
10
74.2312
20
-62.7711
11
74.2449
21
-62.7456
0
LINE
8
BLACK
6
CONTINUOUS
10
74.2449
20
-62.7456
11
74.2632
21
-62.7232
0
LINE
8
BLACK
6
CONTINUOUS
10
74.2632
20
-62.7232
11
74.2856
21
-62.7049
0
LINE
8
BLACK
6
CONTINUOUS
10
74.2856
20
-62.7049
11
74.3111
21
-62.6912
0
LINE
8
BLACK
6
CONTINUOUS
10
74.3111
20
-62.6912
11
74.3387
21
-62.6828
0
LINE
8
BLACK
6
CONTINUOUS
10
74.3387
20
-62.6828
11
74.3675
21
-62.68
0
LINE
8
BLACK
6
CONTINUOUS
10
74.3675
20
-62.68
11
74.6625
21
-62.68
0
LINE
8
BLACK
6
CONTINUOUS
10
74.6625
20
-62.68
11
74.6913
21
-62.6828
0
LINE
8
BLACK
6
CONTINUOUS
10
67.0613
20
-62.4828
11
67.089
21
-62.4912
0
LINE
8
BLACK
6
CONTINUOUS
10
67.089
20
-62.4912
11
67.1145
21
-62.5049
0
LINE
8
BLACK
6
CONTINUOUS
10
67.1145
20
-62.5049
11
67.1368
21
-62.5232
0
LINE
8
BLACK
6
CONTINUOUS
10
67.1368
20
-62.5232
11
67.1552
21
-62.5456
0
LINE
8
BLACK
6
CONTINUOUS
10
67.1552
20
-62.5456
11
67.1688
21
-62.5711
0
LINE
8
BLACK
6
CONTINUOUS
10
67.1688
20
-62.5711
11
67.1772
21
-62.5987
0
LINE
8
BLACK
6
CONTINUOUS
10
67.1772
20
-62.5987
11
67.18
21
-62.6275
0
LINE
8
BLACK
6
CONTINUOUS
10
67.18
20
-62.6275
11
67.18
21
-62.9725
0
LINE
8
BLACK
6
CONTINUOUS
10
67.18
20
-62.9725
11
67.1772
21
-63.0013
0
LINE
8
BLACK
6
CONTINUOUS
10
67.1772
20
-63.0013
11
67.1688
21
-63.0289
0
LINE
8
BLACK
6
CONTINUOUS
10
67.1688
20
-63.0289
11
67.1552
21
-63.0544
0
LINE
8
BLACK
6
CONTINUOUS
10
67.1552
20
-63.0544
11
67.1368
21
-63.0768
0
LINE
8
BLACK
6
CONTINUOUS
10
67.1368
20
-63.0768
11
67.1145
21
-63.0951
0
LINE
8
BLACK
6
CONTINUOUS
10
67.1145
20
-63.0951
11
67.089
21
-63.1088
0
LINE
8
BLACK
6
CONTINUOUS
10
67.089
20
-63.1088
11
67.0613
21
-63.1172
0
LINE
8
BLACK
6
CONTINUOUS
10
67.0613
20
-63.1172
11
67.0325
21
-63.12
0
LINE
8
BLACK
6
CONTINUOUS
10
67.0325
20
-63.12
11
66.7375
21
-63.12
0
LINE
8
BLACK
6
CONTINUOUS
10
66.7375
20
-63.12
11
66.7087
21
-63.1172
0
LINE
8
BLACK
6
CONTINUOUS
10
66.7087
20
-63.1172
11
66.6811
21
-63.1088
0
LINE
8
BLACK
6
CONTINUOUS
10
66.6811
20
-63.1088
11
66.6556
21
-63.0951
0
LINE
8
BLACK
6
CONTINUOUS
10
66.6556
20
-63.0951
11
66.6332
21
-63.0768
0
LINE
8
BLACK
6
CONTINUOUS
10
66.6332
20
-63.0768
11
66.6149
21
-63.0544
0
LINE
8
BLACK
6
CONTINUOUS
10
66.6149
20
-63.0544
11
66.6012
21
-63.0289
0
LINE
8
BLACK
6
CONTINUOUS
10
66.6012
20
-63.0289
11
66.5929
21
-63.0013
0
LINE
8
BLACK
6
CONTINUOUS
10
66.5929
20
-63.0013
11
66.59
21
-62.9725
0
LINE
8
BLACK
6
CONTINUOUS
10
66.59
20
-62.9725
11
66.59
21
-62.6275
0
LINE
8
BLACK
6
CONTINUOUS
10
66.59
20
-62.6275
11
66.5929
21
-62.5987
0
LINE
8
BLACK
6
CONTINUOUS
10
66.5929
20
-62.5987
11
66.6012
21
-62.5711
0
LINE
8
BLACK
6
CONTINUOUS
10
66.6012
20
-62.5711
11
66.6149
21
-62.5456
0
LINE
8
BLACK
6
CONTINUOUS
10
66.6149
20
-62.5456
11
66.6332
21
-62.5232
0
LINE
8
BLACK
6
CONTINUOUS
10
66.6332
20
-62.5232
11
66.6556
21
-62.5049
0
LINE
8
BLACK
6
CONTINUOUS
10
66.6556
20
-62.5049
11
66.6811
21
-62.4912
0
LINE
8
BLACK
6
CONTINUOUS
10
66.6811
20
-62.4912
11
66.7087
21
-62.4828
0
LINE
8
BLACK
6
CONTINUOUS
10
66.7087
20
-62.4828
11
66.7375
21
-62.48
0
LINE
8
BLACK
6
CONTINUOUS
10
66.7375
20
-62.48
11
67.0325
21
-62.48
0
LINE
8
BLACK
6
CONTINUOUS
10
67.0325
20
-62.48
11
67.0613
21
-62.4828
0
LINE
8
BLACK
6
CONTINUOUS
10
66.0913
20
-62.4828
11
66.119
21
-62.4912
0
LINE
8
BLACK
6
CONTINUOUS
10
66.119
20
-62.4912
11
66.1445
21
-62.5049
0
LINE
8
BLACK
6
CONTINUOUS
10
66.1445
20
-62.5049
11
66.1668
21
-62.5232
0
LINE
8
BLACK
6
CONTINUOUS
10
66.1668
20
-62.5232
11
66.1852
21
-62.5456
0
LINE
8
BLACK
6
CONTINUOUS
10
66.1852
20
-62.5456
11
66.1988
21
-62.5711
0
LINE
8
BLACK
6
CONTINUOUS
10
66.1988
20
-62.5711
11
66.2072
21
-62.5987
0
LINE
8
BLACK
6
CONTINUOUS
10
66.2072
20
-62.5987
11
66.21
21
-62.6275
0
LINE
8
BLACK
6
CONTINUOUS
10
66.21
20
-62.6275
11
66.21
21
-62.9725
0
LINE
8
BLACK
6
CONTINUOUS
10
66.21
20
-62.9725
11
66.2072
21
-63.0013
0
LINE
8
BLACK
6
CONTINUOUS
10
66.2072
20
-63.0013
11
66.1988
21
-63.0289
0
LINE
8
BLACK
6
CONTINUOUS
10
66.1988
20
-63.0289
11
66.1852
21
-63.0544
0
LINE
8
BLACK
6
CONTINUOUS
10
66.1852
20
-63.0544
11
66.1668
21
-63.0768
0
LINE
8
BLACK
6
CONTINUOUS
10
66.1668
20
-63.0768
11
66.1445
21
-63.0951
0
LINE
8
BLACK
6
CONTINUOUS
10
66.1445
20
-63.0951
11
66.119
21
-63.1088
0
LINE
8
BLACK
6
CONTINUOUS
10
66.119
20
-63.1088
11
66.0913
21
-63.1172
0
LINE
8
BLACK
6
CONTINUOUS
10
66.0913
20
-63.1172
11
66.0625
21
-63.12
0
LINE
8
BLACK
6
CONTINUOUS
10
66.0625
20
-63.12
11
65.7675
21
-63.12
0
LINE
8
BLACK
6
CONTINUOUS
10
65.7675
20
-63.12
11
65.7387
21
-63.1172
0
LINE
8
BLACK
6
CONTINUOUS
10
65.7387
20
-63.1172
11
65.7111
21
-63.1088
0
LINE
8
BLACK
6
CONTINUOUS
10
65.7111
20
-63.1088
11
65.6856
21
-63.0951
0
LINE
8
BLACK
6
CONTINUOUS
10
65.6856
20
-63.0951
11
65.6632
21
-63.0768
0
LINE
8
BLACK
6
CONTINUOUS
10
65.6632
20
-63.0768
11
65.6449
21
-63.0544
0
LINE
8
BLACK
6
CONTINUOUS
10
65.6449
20
-63.0544
11
65.6312
21
-63.0289
0
LINE
8
BLACK
6
CONTINUOUS
10
65.6312
20
-63.0289
11
65.6229
21
-63.0013
0
LINE
8
BLACK
6
CONTINUOUS
10
65.6229
20
-63.0013
11
65.62
21
-62.9725
0
LINE
8
BLACK
6
CONTINUOUS
10
65.62
20
-62.9725
11
65.62
21
-62.6275
0
LINE
8
BLACK
6
CONTINUOUS
10
65.62
20
-62.6275
11
65.6229
21
-62.5987
0
LINE
8
BLACK
6
CONTINUOUS
10
65.6229
20
-62.5987
11
65.6312
21
-62.5711
0
LINE
8
BLACK
6
CONTINUOUS
10
65.6312
20
-62.5711
11
65.6449
21
-62.5456
0
LINE
8
BLACK
6
CONTINUOUS
10
65.6449
20
-62.5456
11
65.6632
21
-62.5232
0
LINE
8
BLACK
6
CONTINUOUS
10
65.6632
20
-62.5232
11
65.6856
21
-62.5049
0
LINE
8
BLACK
6
CONTINUOUS
10
65.6856
20
-62.5049
11
65.7111
21
-62.4912
0
LINE
8
BLACK
6
CONTINUOUS
10
65.7111
20
-62.4912
11
65.7387
21
-62.4828
0
LINE
8
BLACK
6
CONTINUOUS
10
65.7387
20
-62.4828
11
65.7675
21
-62.48
0
LINE
8
BLACK
6
CONTINUOUS
10
65.7675
20
-62.48
11
66.0625
21
-62.48
0
LINE
8
BLACK
6
CONTINUOUS
10
66.0625
20
-62.48
11
66.0913
21
-62.4828
0
LINE
8
BLACK
6
CONTINUOUS
10
51.0913
20
-62.4828
11
51.1189
21
-62.4912
0
LINE
8
BLACK
6
CONTINUOUS
10
51.1189
20
-62.4912
11
51.1444
21
-62.5049
0
LINE
8
BLACK
6
CONTINUOUS
10
51.1444
20
-62.5049
11
51.1668
21
-62.5232
0
LINE
8
BLACK
6
CONTINUOUS
10
51.1668
20
-62.5232
11
51.1851
21
-62.5456
0
LINE
8
BLACK
6
CONTINUOUS
10
51.1851
20
-62.5456
11
51.1988
21
-62.5711
0
LINE
8
BLACK
6
CONTINUOUS
10
51.1988
20
-62.5711
11
51.2072
21
-62.5987
0
LINE
8
BLACK
6
CONTINUOUS
10
51.2072
20
-62.5987
11
51.21
21
-62.6275
0
LINE
8
BLACK
6
CONTINUOUS
10
51.21
20
-62.6275
11
51.21
21
-62.9725
0
LINE
8
BLACK
6
CONTINUOUS
10
51.21
20
-62.9725
11
51.2072
21
-63.0013
0
LINE
8
BLACK
6
CONTINUOUS
10
51.2072
20
-63.0013
11
51.1988
21
-63.0289
0
LINE
8
BLACK
6
CONTINUOUS
10
51.1988
20
-63.0289
11
51.1851
21
-63.0544
0
LINE
8
BLACK
6
CONTINUOUS
10
51.1851
20
-63.0544
11
51.1668
21
-63.0768
0
LINE
8
BLACK
6
CONTINUOUS
10
51.1668
20
-63.0768
11
51.1444
21
-63.0951
0
LINE
8
BLACK
6
CONTINUOUS
10
51.1444
20
-63.0951
11
51.1189
21
-63.1088
0
LINE
8
BLACK
6
CONTINUOUS
10
51.1189
20
-63.1088
11
51.0913
21
-63.1172
0
LINE
8
BLACK
6
CONTINUOUS
10
51.0913
20
-63.1172
11
51.0625
21
-63.12
0
LINE
8
BLACK
6
CONTINUOUS
10
51.0625
20
-63.12
11
50.7675
21
-63.12
0
LINE
8
BLACK
6
CONTINUOUS
10
50.7675
20
-63.12
11
50.7387
21
-63.1172
0
LINE
8
BLACK
6
CONTINUOUS
10
50.7387
20
-63.1172
11
50.7111
21
-63.1088
0
LINE
8
BLACK
6
CONTINUOUS
10
50.7111
20
-63.1088
11
50.6856
21
-63.0951
0
LINE
8
BLACK
6
CONTINUOUS
10
50.6856
20
-63.0951
11
50.6632
21
-63.0768
0
LINE
8
BLACK
6
CONTINUOUS
10
50.6632
20
-63.0768
11
50.6449
21
-63.0544
0
LINE
8
BLACK
6
CONTINUOUS
10
50.6449
20
-63.0544
11
50.6312
21
-63.0289
0
LINE
8
BLACK
6
CONTINUOUS
10
50.6312
20
-63.0289
11
50.6228
21
-63.0013
0
LINE
8
BLACK
6
CONTINUOUS
10
50.6228
20
-63.0013
11
50.62
21
-62.9725
0
LINE
8
BLACK
6
CONTINUOUS
10
50.62
20
-62.9725
11
50.62
21
-62.6275
0
LINE
8
BLACK
6
CONTINUOUS
10
50.62
20
-62.6275
11
50.6228
21
-62.5987
0
LINE
8
BLACK
6
CONTINUOUS
10
50.6228
20
-62.5987
11
50.6312
21
-62.5711
0
LINE
8
BLACK
6
CONTINUOUS
10
50.6312
20
-62.5711
11
50.6449
21
-62.5456
0
LINE
8
BLACK
6
CONTINUOUS
10
50.6449
20
-62.5456
11
50.6632
21
-62.5232
0
LINE
8
BLACK
6
CONTINUOUS
10
50.6632
20
-62.5232
11
50.6856
21
-62.5049
0
LINE
8
BLACK
6
CONTINUOUS
10
50.6856
20
-62.5049
11
50.7111
21
-62.4912
0
LINE
8
BLACK
6
CONTINUOUS
10
50.7111
20
-62.4912
11
50.7387
21
-62.4828
0
LINE
8
BLACK
6
CONTINUOUS
10
50.7387
20
-62.4828
11
50.7675
21
-62.48
0
LINE
8
BLACK
6
CONTINUOUS
10
50.7675
20
-62.48
11
51.0625
21
-62.48
0
LINE
8
BLACK
6
CONTINUOUS
10
51.0625
20
-62.48
11
51.0913
21
-62.4828
0
LINE
8
BLACK
6
CONTINUOUS
10
52.0613
20
-62.4828
11
52.0889
21
-62.4912
0
LINE
8
BLACK
6
CONTINUOUS
10
52.0889
20
-62.4912
11
52.1144
21
-62.5049
0
LINE
8
BLACK
6
CONTINUOUS
10
52.1144
20
-62.5049
11
52.1368
21
-62.5232
0
LINE
8
BLACK
6
CONTINUOUS
10
52.1368
20
-62.5232
11
52.1551
21
-62.5456
0
LINE
8
BLACK
6
CONTINUOUS
10
52.1551
20
-62.5456
11
52.1688
21
-62.5711
0
LINE
8
BLACK
6
CONTINUOUS
10
52.1688
20
-62.5711
11
52.1772
21
-62.5987
0
LINE
8
BLACK
6
CONTINUOUS
10
52.1772
20
-62.5987
11
52.18
21
-62.6275
0
LINE
8
BLACK
6
CONTINUOUS
10
52.18
20
-62.6275
11
52.18
21
-62.9725
0
LINE
8
BLACK
6
CONTINUOUS
10
52.18
20
-62.9725
11
52.1772
21
-63.0013
0
LINE
8
BLACK
6
CONTINUOUS
10
52.1772
20
-63.0013
11
52.1688
21
-63.0289
0
LINE
8
BLACK
6
CONTINUOUS
10
52.1688
20
-63.0289
11
52.1551
21
-63.0544
0
LINE
8
BLACK
6
CONTINUOUS
10
52.1551
20
-63.0544
11
52.1368
21
-63.0768
0
LINE
8
BLACK
6
CONTINUOUS
10
52.1368
20
-63.0768
11
52.1144
21
-63.0951
0
LINE
8
BLACK
6
CONTINUOUS
10
52.1144
20
-63.0951
11
52.0889
21
-63.1088
0
LINE
8
BLACK
6
CONTINUOUS
10
52.0889
20
-63.1088
11
52.0613
21
-63.1172
0
LINE
8
BLACK
6
CONTINUOUS
10
52.0613
20
-63.1172
11
52.0325
21
-63.12
0
LINE
8
BLACK
6
CONTINUOUS
10
52.0325
20
-63.12
11
51.7375
21
-63.12
0
LINE
8
BLACK
6
CONTINUOUS
10
51.7375
20
-63.12
11
51.7087
21
-63.1172
0
LINE
8
BLACK
6
CONTINUOUS
10
51.7087
20
-63.1172
11
51.6811
21
-63.1088
0
LINE
8
BLACK
6
CONTINUOUS
10
51.6811
20
-63.1088
11
51.6556
21
-63.0951
0
LINE
8
BLACK
6
CONTINUOUS
10
51.6556
20
-63.0951
11
51.6332
21
-63.0768
0
LINE
8
BLACK
6
CONTINUOUS
10
51.6332
20
-63.0768
11
51.6149
21
-63.0544
0
LINE
8
BLACK
6
CONTINUOUS
10
51.6149
20
-63.0544
11
51.6012
21
-63.0289
0
LINE
8
BLACK
6
CONTINUOUS
10
51.6012
20
-63.0289
11
51.5928
21
-63.0013
0
LINE
8
BLACK
6
CONTINUOUS
10
51.5928
20
-63.0013
11
51.59
21
-62.9725
0
LINE
8
BLACK
6
CONTINUOUS
10
51.59
20
-62.9725
11
51.59
21
-62.6275
0
LINE
8
BLACK
6
CONTINUOUS
10
51.59
20
-62.6275
11
51.5928
21
-62.5987
0
LINE
8
BLACK
6
CONTINUOUS
10
51.5928
20
-62.5987
11
51.6012
21
-62.5711
0
LINE
8
BLACK
6
CONTINUOUS
10
51.6012
20
-62.5711
11
51.6149
21
-62.5456
0
LINE
8
BLACK
6
CONTINUOUS
10
51.6149
20
-62.5456
11
51.6332
21
-62.5232
0
LINE
8
BLACK
6
CONTINUOUS
10
51.6332
20
-62.5232
11
51.6556
21
-62.5049
0
LINE
8
BLACK
6
CONTINUOUS
10
51.6556
20
-62.5049
11
51.6811
21
-62.4912
0
LINE
8
BLACK
6
CONTINUOUS
10
51.6811
20
-62.4912
11
51.7087
21
-62.4828
0
LINE
8
BLACK
6
CONTINUOUS
10
51.7087
20
-62.4828
11
51.7375
21
-62.48
0
LINE
8
BLACK
6
CONTINUOUS
10
51.7375
20
-62.48
11
52.0325
21
-62.48
0
LINE
8
BLACK
6
CONTINUOUS
10
52.0325
20
-62.48
11
52.0613
21
-62.4828
  0
ENDSEC
  0
EOF
